ISO-10303-21;
HEADER;

/* File generated by HOOPS Exchange Version 10.0.20 */

FILE_DESCRIPTION(('HOOPS Exchange Step'),'2;1');

FILE_NAME('c:\\tempstorage\\0548677634401477\\Axe de 5.step',
'2018-12-28T16:47:47+00:00',
('SYSTEM'),
('Unknown organisation'),
'HOOPS Exchange 10.0',
'HOOPS Exchange',
'Unknown authorisation');

FILE_SCHEMA( ('AUTOMOTIVE_DESIGN { 1 0 10303 214 1 1 1 1 }') );

ENDSEC;

DATA;
#3=(NAMED_UNIT(*)PLANE_ANGLE_UNIT()SI_UNIT($,.RADIAN.));
#4=PLANE_ANGLE_MEASURE_WITH_UNIT(PLANE_ANGLE_MEASURE(0.0174532925),#3);
#5=(CONVERSION_BASED_UNIT('DEGREE',#4)NAMED_UNIT(#6)PLANE_ANGLE_UNIT());
#6=DIMENSIONAL_EXPONENTS(0.,0.,0.,0.,0.,0.,0.);
#7=(NAMED_UNIT(*)SI_UNIT($,.STERADIAN.)SOLID_ANGLE_UNIT());
#8=(LENGTH_UNIT()NAMED_UNIT(*)SI_UNIT(.MILLI.,.METRE.));
#9=UNCERTAINTY_MEASURE_WITH_UNIT(LENGTH_MEASURE(1.000000E-005),#8,'DISTANCE_ACCURACY_VALUE','Maximum Tolerance applied to model');
#10=(GEOMETRIC_REPRESENTATION_CONTEXT(3)GLOBAL_UNCERTAINTY_ASSIGNED_CONTEXT((#9))GLOBAL_UNIT_ASSIGNED_CONTEXT((#8,#5,#7))REPRESENTATION_CONTEXT('','Axe de 5'));
#12=CARTESIAN_POINT('',(0.0,0.0,0.0));
#13=DIRECTION('',(0.0,0.0,1.0));
#14=DIRECTION('',(1.0,0.0,0.0));
#15=AXIS2_PLACEMENT_3D('',#12,#13,#14);
#20=(NAMED_UNIT(*)PLANE_ANGLE_UNIT()SI_UNIT($,.RADIAN.));
#21=PLANE_ANGLE_MEASURE_WITH_UNIT(PLANE_ANGLE_MEASURE(0.0174532925),#20);
#22=(CONVERSION_BASED_UNIT('DEGREE',#21)NAMED_UNIT(#23)PLANE_ANGLE_UNIT());
#23=DIMENSIONAL_EXPONENTS(0.,0.,0.,0.,0.,0.,0.);
#24=(NAMED_UNIT(*)SI_UNIT($,.STERADIAN.)SOLID_ANGLE_UNIT());
#25=(LENGTH_UNIT()NAMED_UNIT(*)SI_UNIT(.MILLI.,.METRE.));
#26=UNCERTAINTY_MEASURE_WITH_UNIT(LENGTH_MEASURE(1.000000E-005),#25,'DISTANCE_ACCURACY_VALUE','Maximum Tolerance applied to model');
#27=(GEOMETRIC_REPRESENTATION_CONTEXT(3)GLOBAL_UNCERTAINTY_ASSIGNED_CONTEXT((#26))GLOBAL_UNIT_ASSIGNED_CONTEXT((#25,#22,#24))REPRESENTATION_CONTEXT('','D\S\ifaut'));
#29=CARTESIAN_POINT('',(0.0,0.0,0.0));
#30=DIRECTION('',(0.0,0.0,1.0));
#31=DIRECTION('',(1.0,0.0,0.0));
#32=AXIS2_PLACEMENT_3D('',#29,#30,#31);
#37=CARTESIAN_POINT('',(0.0,0.0,0.0));
#38=DIRECTION('',(0.0,0.0,1.0));
#39=DIRECTION('',(1.0,0.0,0.0));
#40=AXIS2_PLACEMENT_3D('',#37,#38,#39);
#41=ITEM_DEFINED_TRANSFORMATION('','',#40,#32);
#42=(REPRESENTATION_RELATIONSHIP('','',#33,#16)REPRESENTATION_RELATIONSHIP_WITH_TRANSFORMATION(#41)SHAPE_REPRESENTATION_RELATIONSHIP());
#43=NEXT_ASSEMBLY_USAGE_OCCURRENCE('D\S\ifaut_1','D\S\ifaut','D\S\ifaut',#19,#36,$);
#44=PRODUCT_DEFINITION_SHAPE('','',#43);
#45=CONTEXT_DEPENDENT_SHAPE_REPRESENTATION(#42,#44);
#47=CARTESIAN_POINT('',(3.68628739E-015,8.54606104,0.0));
#48=DIRECTION('',(-0.0,1.0,0.0));
#49=DIRECTION('',(1.0,0.0,0.0));
#50=AXIS2_PLACEMENT_3D('',#47,#48,#49);
#51=SPHERICAL_SURFACE('',#50,3.50311525);
#52=CARTESIAN_POINT('',(3.90079133E-015,12.0491763,0.0));
#53=VERTEX_POINT('',#52);
#54=CARTESIAN_POINT('',(2.5,11.0,1.5308085E-016));
#55=VERTEX_POINT('',#54);
#56=CARTESIAN_POINT('',(3.68628739E-015,8.54606104,0.0));
#57=DIRECTION('',(-0.0,-0.0,-1.0));
#58=DIRECTION('',(1.0,0.0,-0.0));
#59=AXIS2_PLACEMENT_3D('',#56,#57,#58);
#60=CIRCLE('',#59,3.50311525);
#61=EDGE_CURVE('',#53,#55,#60,.T.);
#62=ORIENTED_EDGE('',*,*,#61,.T.);
#63=CARTESIAN_POINT('',(-3.061617E-016,11.0,2.5));
#64=VERTEX_POINT('',#63);
#65=CARTESIAN_POINT('',(0.0,11.0,0.0));
#66=DIRECTION('',(0.0,1.0,0.0));
#67=DIRECTION('',(0.0,-0.0,1.0));
#68=AXIS2_PLACEMENT_3D('',#65,#66,#67);
#69=CIRCLE('',#68,2.5);
#70=EDGE_CURVE('',#55,#64,#69,.T.);
#71=ORIENTED_EDGE('',*,*,#70,.T.);
#72=CARTESIAN_POINT('',(0.0,11.0,0.0));
#73=DIRECTION('',(0.0,1.0,0.0));
#74=DIRECTION('',(0.0,-0.0,1.0));
#75=AXIS2_PLACEMENT_3D('',#72,#73,#74);
#76=CIRCLE('',#75,2.5);
#77=EDGE_CURVE('',#64,#55,#76,.T.);
#78=ORIENTED_EDGE('',*,*,#77,.T.);
#79=ORIENTED_EDGE('',*,*,#61,.F.);
#80=EDGE_LOOP('',(#62,#71,#78,#79));
#81=FACE_BOUND('',#80,.T.);
#82=ADVANCED_FACE('',(#81),#51,.T.);
#83=CARTESIAN_POINT('',(0.0,11.9802381,0.0));
#84=DIRECTION('',(0.0,1.0,0.0));
#85=DIRECTION('',(0.0,-0.0,1.0));
#86=AXIS2_PLACEMENT_3D('',#83,#84,#85);
#87=CYLINDRICAL_SURFACE('',#86,2.5);
#88=CARTESIAN_POINT('',(-3.061617E-016,-11.0,2.5));
#89=VERTEX_POINT('',#88);
#90=CARTESIAN_POINT('',(0.0,11.0,2.5));
#91=DIRECTION('',(-0.0,-1.0,-0.0));
#92=VECTOR('',#91,22.0);
#93=LINE('',#90,#92);
#94=EDGE_CURVE('',#64,#89,#93,.T.);
#95=ORIENTED_EDGE('',*,*,#94,.T.);
#96=CARTESIAN_POINT('',(2.5,-11.0,1.5308085E-016));
#97=VERTEX_POINT('',#96);
#98=CARTESIAN_POINT('',(0.0,-11.0,0.0));
#99=DIRECTION('',(0.0,1.0,0.0));
#100=DIRECTION('',(0.0,-0.0,1.0));
#101=AXIS2_PLACEMENT_3D('',#98,#99,#100);
#102=CIRCLE('',#101,2.5);
#103=EDGE_CURVE('',#89,#97,#102,.T.);
#104=ORIENTED_EDGE('',*,*,#103,.T.);
#105=CARTESIAN_POINT('',(0.0,-11.0,0.0));
#106=DIRECTION('',(0.0,1.0,0.0));
#107=DIRECTION('',(0.0,-0.0,1.0));
#108=AXIS2_PLACEMENT_3D('',#105,#106,#107);
#109=CIRCLE('',#108,2.5);
#110=EDGE_CURVE('',#97,#89,#109,.T.);
#111=ORIENTED_EDGE('',*,*,#110,.T.);
#112=ORIENTED_EDGE('',*,*,#94,.F.);
#113=ORIENTED_EDGE('',*,*,#70,.F.);
#114=ORIENTED_EDGE('',*,*,#77,.F.);
#115=EDGE_LOOP('',(#95,#104,#111,#112,#113,#114));
#116=FACE_BOUND('',#115,.T.);
#117=ADVANCED_FACE('',(#116),#87,.T.);
#118=CARTESIAN_POINT('',(5.85469173E-015,-8.54606104,0.0));
#119=DIRECTION('',(-0.0,1.0,0.0));
#120=DIRECTION('',(1.0,0.0,0.0));
#121=AXIS2_PLACEMENT_3D('',#118,#119,#120);
#122=SPHERICAL_SURFACE('',#121,3.50311525);
#123=CARTESIAN_POINT('',(6.41803563E-015,-12.0491763,2.1678693E-031));
#124=VERTEX_POINT('',#123);
#125=CARTESIAN_POINT('',(5.85469173E-015,-8.54606104,0.0));
#126=DIRECTION('',(-0.0,-0.0,-1.0));
#127=DIRECTION('',(1.0,0.0,-0.0));
#128=AXIS2_PLACEMENT_3D('',#125,#126,#127);
#129=CIRCLE('',#128,3.50311525);
#130=EDGE_CURVE('',#97,#124,#129,.T.);
#131=ORIENTED_EDGE('',*,*,#130,.T.);
#132=ORIENTED_EDGE('',*,*,#130,.F.);
#133=ORIENTED_EDGE('',*,*,#103,.F.);
#134=ORIENTED_EDGE('',*,*,#110,.F.);
#135=EDGE_LOOP('',(#131,#132,#133,#134));
#136=FACE_BOUND('',#135,.T.);
#137=ADVANCED_FACE('',(#136),#122,.T.);
#138=CLOSED_SHELL('',(#82,#117,#137));
#139=MANIFOLD_SOLID_BREP('',#138);
#140=COLOUR_RGB('',0.752941191,0.752941191,0.752941191);
#141=FILL_AREA_STYLE_COLOUR('',#140);
#142=FILL_AREA_STYLE('',(#141));
#143=SURFACE_STYLE_FILL_AREA(#142);
#144=SURFACE_SIDE_STYLE('',(#143));
#145=SURFACE_STYLE_USAGE(.BOTH.,#144);
#146=PRESENTATION_STYLE_ASSIGNMENT((#145));
#46=STYLED_ITEM('',(#146),#139);
#33=SHAPE_REPRESENTATION('D\S\ifaut',(#32),#27);
#147=ADVANCED_BREP_SHAPE_REPRESENTATION('D\S\ifaut',(#139),#27);
#148=SHAPE_REPRESENTATION_RELATIONSHIP('','',#33,#147);
#149=APPLICATION_CONTEXT('data for automotive mechanical design processes');
#150=APPLICATION_PROTOCOL_DEFINITION('international standard','automotive_design',1994,#149);
#151=PRODUCT_CONTEXT('',#149,'mechanical');
#152=PRODUCT_DEFINITION_CONTEXT('part definition',#149,'design');
#35=PRODUCT('D\S\ifaut','D\S\ifaut','',(#151));
#153=PRODUCT_RELATED_PRODUCT_CATEGORY('part','',(#35));
#154=PRODUCT_DEFINITION_FORMATION_WITH_SPECIFIED_SOURCE('','',#35,.NOT_KNOWN.);
#36=PRODUCT_DEFINITION('design','',#154,#152);
#34=PRODUCT_DEFINITION_SHAPE('','',#36);
#155=SHAPE_DEFINITION_REPRESENTATION(#34,#33);
#28=DRAUGHTING_MODEL('',(),#27);
#16=SHAPE_REPRESENTATION('Axe de 5',(#15,#40),#10);
#18=PRODUCT('Axe de 5','Axe de 5','',(#151));
#156=PRODUCT_RELATED_PRODUCT_CATEGORY('part','',(#18));
#157=PRODUCT_DEFINITION_FORMATION_WITH_SPECIFIED_SOURCE('','',#18,.NOT_KNOWN.);
#19=PRODUCT_DEFINITION('design','',#157,#152);
#17=PRODUCT_DEFINITION_SHAPE('','',#19);
#158=SHAPE_DEFINITION_REPRESENTATION(#17,#16);
#11=DRAUGHTING_MODEL('',(),#10);
#1=MECHANICAL_DESIGN_GEOMETRIC_PRESENTATION_REPRESENTATION('',(#46),#10);
ENDSEC;
END-ISO-10303-21;
