ISO-10303-21;
HEADER;

/* File generated by HOOPS Exchange Version 10.0.20 */

FILE_DESCRIPTION(('HOOPS Exchange Step'),'2;1');

FILE_NAME('c:\\tempstorage\\0954209788745629\\Capteur.step',
'2018-12-28T16:48:33+00:00',
('SYSTEM'),
('Unknown organisation'),
'HOOPS Exchange 10.0',
'HOOPS Exchange',
'Unknown authorisation');

FILE_SCHEMA( ('AUTOMOTIVE_DESIGN { 1 0 10303 214 1 1 1 1 }') );

ENDSEC;

DATA;
#3=(NAMED_UNIT(*)PLANE_ANGLE_UNIT()SI_UNIT($,.RADIAN.));
#4=PLANE_ANGLE_MEASURE_WITH_UNIT(PLANE_ANGLE_MEASURE(0.0174532925),#3);
#5=(CONVERSION_BASED_UNIT('DEGREE',#4)NAMED_UNIT(#6)PLANE_ANGLE_UNIT());
#6=DIMENSIONAL_EXPONENTS(0.,0.,0.,0.,0.,0.,0.);
#7=(NAMED_UNIT(*)SI_UNIT($,.STERADIAN.)SOLID_ANGLE_UNIT());
#8=(LENGTH_UNIT()NAMED_UNIT(*)SI_UNIT(.MILLI.,.METRE.));
#9=UNCERTAINTY_MEASURE_WITH_UNIT(LENGTH_MEASURE(1.000000E-005),#8,'DISTANCE_ACCURACY_VALUE','Maximum Tolerance applied to model');
#10=(GEOMETRIC_REPRESENTATION_CONTEXT(3)GLOBAL_UNCERTAINTY_ASSIGNED_CONTEXT((#9))GLOBAL_UNIT_ASSIGNED_CONTEXT((#8,#5,#7))REPRESENTATION_CONTEXT('','Capteur'));
#12=CARTESIAN_POINT('',(0.0,0.0,0.0));
#13=DIRECTION('',(0.0,0.0,1.0));
#14=DIRECTION('',(1.0,0.0,0.0));
#15=AXIS2_PLACEMENT_3D('',#12,#13,#14);
#20=(NAMED_UNIT(*)PLANE_ANGLE_UNIT()SI_UNIT($,.RADIAN.));
#21=PLANE_ANGLE_MEASURE_WITH_UNIT(PLANE_ANGLE_MEASURE(0.0174532925),#20);
#22=(CONVERSION_BASED_UNIT('DEGREE',#21)NAMED_UNIT(#23)PLANE_ANGLE_UNIT());
#23=DIMENSIONAL_EXPONENTS(0.,0.,0.,0.,0.,0.,0.);
#24=(NAMED_UNIT(*)SI_UNIT($,.STERADIAN.)SOLID_ANGLE_UNIT());
#25=(LENGTH_UNIT()NAMED_UNIT(*)SI_UNIT(.MILLI.,.METRE.));
#26=UNCERTAINTY_MEASURE_WITH_UNIT(LENGTH_MEASURE(1.000000E-005),#25,'DISTANCE_ACCURACY_VALUE','Maximum Tolerance applied to model');
#27=(GEOMETRIC_REPRESENTATION_CONTEXT(3)GLOBAL_UNCERTAINTY_ASSIGNED_CONTEXT((#26))GLOBAL_UNIT_ASSIGNED_CONTEXT((#25,#22,#24))REPRESENTATION_CONTEXT('','D\S\ifaut'));
#29=CARTESIAN_POINT('',(0.0,0.0,0.0));
#30=DIRECTION('',(0.0,0.0,1.0));
#31=DIRECTION('',(1.0,0.0,0.0));
#32=AXIS2_PLACEMENT_3D('',#29,#30,#31);
#37=CARTESIAN_POINT('',(0.0,0.0,0.0));
#38=DIRECTION('',(0.0,0.0,1.0));
#39=DIRECTION('',(1.0,0.0,0.0));
#40=AXIS2_PLACEMENT_3D('',#37,#38,#39);
#41=ITEM_DEFINED_TRANSFORMATION('','',#40,#32);
#42=(REPRESENTATION_RELATIONSHIP('','',#33,#16)REPRESENTATION_RELATIONSHIP_WITH_TRANSFORMATION(#41)SHAPE_REPRESENTATION_RELATIONSHIP());
#43=NEXT_ASSEMBLY_USAGE_OCCURRENCE('D\S\ifaut_1','D\S\ifaut','D\S\ifaut',#19,#36,$);
#44=PRODUCT_DEFINITION_SHAPE('','',#43);
#45=CONTEXT_DEPENDENT_SHAPE_REPRESENTATION(#42,#44);
#47=CARTESIAN_POINT('',(0.0,30.0,0.0));
#48=DIRECTION('',(0.0,-1.0,0.0));
#49=DIRECTION('',(0.0,0.0,-1.0));
#50=AXIS2_PLACEMENT_3D('',#47,#48,#49);
#51=PLANE('',#50);
#52=CARTESIAN_POINT('',(-3.61270806E-016,30.0,-2.95));
#53=VERTEX_POINT('',#52);
#54=CARTESIAN_POINT('',(0.0,30.0,0.0));
#55=DIRECTION('',(0.0,-1.0,0.0));
#56=DIRECTION('',(0.0,0.0,-1.0));
#57=AXIS2_PLACEMENT_3D('',#54,#55,#56);
#58=CIRCLE('',#57,2.95);
#59=EDGE_CURVE('',#53,#53,#58,.T.);
#60=ORIENTED_EDGE('',*,*,#59,.F.);
#61=EDGE_LOOP('',(#60));
#62=FACE_BOUND('',#61,.T.);
#63=ADVANCED_FACE('',(#62),#51,.F.);
#64=CARTESIAN_POINT('',(0.0,30.0,0.0));
#65=DIRECTION('',(0.0,-1.0,0.0));
#66=DIRECTION('',(0.0,0.0,-1.0));
#67=AXIS2_PLACEMENT_3D('',#64,#65,#66);
#68=CONICAL_SURFACE('',#67,2.95,7.12501635);
#69=CARTESIAN_POINT('',(-3.91886976E-016,28.0,-3.2));
#70=VERTEX_POINT('',#69);
#71=CARTESIAN_POINT('',(0.0,28.0,-3.2));
#72=DIRECTION('',(-0.0,0.992277877,0.124034735));
#73=VECTOR('',#72,2.01556444);
#74=LINE('',#71,#73);
#75=EDGE_CURVE('',#70,#53,#74,.T.);
#76=ORIENTED_EDGE('',*,*,#75,.T.);
#77=ORIENTED_EDGE('',*,*,#59,.T.);
#78=ORIENTED_EDGE('',*,*,#75,.F.);
#79=CARTESIAN_POINT('',(0.0,28.0,0.0));
#80=DIRECTION('',(0.0,-1.0,0.0));
#81=DIRECTION('',(0.0,0.0,-1.0));
#82=AXIS2_PLACEMENT_3D('',#79,#80,#81);
#83=CIRCLE('',#82,3.2);
#84=EDGE_CURVE('',#70,#70,#83,.T.);
#85=ORIENTED_EDGE('',*,*,#84,.F.);
#86=EDGE_LOOP('',(#76,#77,#78,#85));
#87=FACE_BOUND('',#86,.T.);
#88=ADVANCED_FACE('',(#87),#68,.T.);
#89=CARTESIAN_POINT('',(2.95,28.0,0.0));
#90=DIRECTION('',(0.0,-1.0,0.0));
#91=DIRECTION('',(0.0,0.0,-1.0));
#92=AXIS2_PLACEMENT_3D('',#89,#90,#91);
#93=PLANE('',#92);
#94=ORIENTED_EDGE('',*,*,#84,.T.);
#95=EDGE_LOOP('',(#94));
#96=FACE_BOUND('',#95,.T.);
#97=CARTESIAN_POINT('',(-3.61270806E-016,28.0,-2.95));
#98=VERTEX_POINT('',#97);
#99=CARTESIAN_POINT('',(0.0,28.0,0.0));
#100=DIRECTION('',(0.0,-1.0,0.0));
#101=DIRECTION('',(0.0,0.0,-1.0));
#102=AXIS2_PLACEMENT_3D('',#99,#100,#101);
#103=CIRCLE('',#102,2.95);
#104=EDGE_CURVE('',#98,#98,#103,.T.);
#105=ORIENTED_EDGE('',*,*,#104,.F.);
#106=EDGE_LOOP('',(#105));
#107=FACE_BOUND('',#106,.T.);
#108=ADVANCED_FACE('',(#96,#107),#93,.T.);
#109=CARTESIAN_POINT('',(0.0,-1.36682243,0.0));
#110=DIRECTION('',(0.0,-1.0,0.0));
#111=DIRECTION('',(0.0,0.0,-1.0));
#112=AXIS2_PLACEMENT_3D('',#109,#110,#111);
#113=CYLINDRICAL_SURFACE('',#112,2.95);
#114=CARTESIAN_POINT('',(-3.61270806E-016,27.0,-2.95));
#115=VERTEX_POINT('',#114);
#116=CARTESIAN_POINT('',(0.0,27.0,-2.95));
#117=DIRECTION('',(-0.0,1.0,-0.0));
#118=VECTOR('',#117,1.0);
#119=LINE('',#116,#118);
#120=EDGE_CURVE('',#115,#98,#119,.T.);
#121=ORIENTED_EDGE('',*,*,#120,.T.);
#122=ORIENTED_EDGE('',*,*,#104,.T.);
#123=ORIENTED_EDGE('',*,*,#120,.F.);
#124=CARTESIAN_POINT('',(0.0,27.0,0.0));
#125=DIRECTION('',(0.0,-1.0,0.0));
#126=DIRECTION('',(0.0,0.0,-1.0));
#127=AXIS2_PLACEMENT_3D('',#124,#125,#126);
#128=CIRCLE('',#127,2.95);
#129=EDGE_CURVE('',#115,#115,#128,.T.);
#130=ORIENTED_EDGE('',*,*,#129,.F.);
#131=EDGE_LOOP('',(#121,#122,#123,#130));
#132=FACE_BOUND('',#131,.T.);
#133=ADVANCED_FACE('',(#132),#113,.T.);
#134=CARTESIAN_POINT('',(2.95,27.0,0.0));
#135=DIRECTION('',(0.0,-1.0,0.0));
#136=DIRECTION('',(0.0,0.0,-1.0));
#137=AXIS2_PLACEMENT_3D('',#134,#135,#136);
#138=PLANE('',#137);
#139=CARTESIAN_POINT('',(-3.91886976E-016,27.0,-3.2));
#140=VERTEX_POINT('',#139);
#141=CARTESIAN_POINT('',(0.0,27.0,0.0));
#142=DIRECTION('',(0.0,-1.0,0.0));
#143=DIRECTION('',(0.0,0.0,-1.0));
#144=AXIS2_PLACEMENT_3D('',#141,#142,#143);
#145=CIRCLE('',#144,3.2);
#146=EDGE_CURVE('',#140,#140,#145,.T.);
#147=ORIENTED_EDGE('',*,*,#146,.F.);
#148=EDGE_LOOP('',(#147));
#149=FACE_BOUND('',#148,.T.);
#150=ORIENTED_EDGE('',*,*,#129,.T.);
#151=EDGE_LOOP('',(#150));
#152=FACE_BOUND('',#151,.T.);
#153=ADVANCED_FACE('',(#149,#152),#138,.F.);
#154=CARTESIAN_POINT('',(0.0,27.0,0.0));
#155=DIRECTION('',(0.0,-1.0,0.0));
#156=DIRECTION('',(0.0,0.0,-1.0));
#157=AXIS2_PLACEMENT_3D('',#154,#155,#156);
#158=CONICAL_SURFACE('',#157,3.2,45.0);
#159=CARTESIAN_POINT('',(-4.8985872E-016,26.2,-4.0));
#160=VERTEX_POINT('',#159);
#161=CARTESIAN_POINT('',(0.0,26.2,-4.0));
#162=DIRECTION('',(-0.0,0.707106781,0.707106781));
#163=VECTOR('',#162,1.13137085);
#164=LINE('',#161,#163);
#165=EDGE_CURVE('',#160,#140,#164,.T.);
#166=ORIENTED_EDGE('',*,*,#165,.T.);
#167=ORIENTED_EDGE('',*,*,#146,.T.);
#168=ORIENTED_EDGE('',*,*,#165,.F.);
#169=CARTESIAN_POINT('',(0.0,26.2,0.0));
#170=DIRECTION('',(0.0,-1.0,0.0));
#171=DIRECTION('',(0.0,0.0,-1.0));
#172=AXIS2_PLACEMENT_3D('',#169,#170,#171);
#173=CIRCLE('',#172,4.0);
#174=EDGE_CURVE('',#160,#160,#173,.T.);
#175=ORIENTED_EDGE('',*,*,#174,.F.);
#176=EDGE_LOOP('',(#166,#167,#168,#175));
#177=FACE_BOUND('',#176,.T.);
#178=ADVANCED_FACE('',(#177),#158,.T.);
#179=CARTESIAN_POINT('',(0.0,-1.36682243,0.0));
#180=DIRECTION('',(0.0,-1.0,0.0));
#181=DIRECTION('',(0.0,0.0,-1.0));
#182=AXIS2_PLACEMENT_3D('',#179,#180,#181);
#183=CYLINDRICAL_SURFACE('',#182,4.0);
#184=CARTESIAN_POINT('',(-4.8985872E-016,0.8,-4.0));
#185=VERTEX_POINT('',#184);
#186=CARTESIAN_POINT('',(0.0,0.8,-4.0));
#187=DIRECTION('',(-0.0,1.0,-0.0));
#188=VECTOR('',#187,25.4);
#189=LINE('',#186,#188);
#190=EDGE_CURVE('',#185,#160,#189,.T.);
#191=ORIENTED_EDGE('',*,*,#190,.T.);
#192=ORIENTED_EDGE('',*,*,#174,.T.);
#193=ORIENTED_EDGE('',*,*,#190,.F.);
#194=CARTESIAN_POINT('',(4.8985872E-016,0.8,4.0));
#195=VERTEX_POINT('',#194);
#196=CARTESIAN_POINT('',(0.0,0.8,0.0));
#197=DIRECTION('',(-0.0,1.0,-0.0));
#198=DIRECTION('',(0.0,0.0,-1.0));
#199=AXIS2_PLACEMENT_3D('',#196,#197,#198);
#200=CIRCLE('',#199,4.0);
#201=EDGE_CURVE('',#185,#195,#200,.T.);
#202=ORIENTED_EDGE('',*,*,#201,.T.);
#203=CARTESIAN_POINT('',(0.0,0.8,0.0));
#204=DIRECTION('',(-0.0,1.0,-0.0));
#205=DIRECTION('',(0.0,0.0,-1.0));
#206=AXIS2_PLACEMENT_3D('',#203,#204,#205);
#207=CIRCLE('',#206,4.0);
#208=EDGE_CURVE('',#195,#185,#207,.T.);
#209=ORIENTED_EDGE('',*,*,#208,.T.);
#210=EDGE_LOOP('',(#191,#192,#193,#202,#209));
#211=FACE_BOUND('',#210,.T.);
#212=ADVANCED_FACE('',(#211),#183,.T.);
#213=CARTESIAN_POINT('',(0.0,0.0,0.0));
#214=DIRECTION('',(0.0,-1.0,0.0));
#215=DIRECTION('',(0.0,0.0,-1.0));
#216=AXIS2_PLACEMENT_3D('',#213,#214,#215);
#217=PLANE('',#216);
#218=CARTESIAN_POINT('',(-3.91886976E-016,0.0,-3.2));
#219=VERTEX_POINT('',#218);
#220=CARTESIAN_POINT('',(3.91886976E-016,0.0,3.2));
#221=VERTEX_POINT('',#220);
#222=CARTESIAN_POINT('',(0.0,0.0,0.0));
#223=DIRECTION('',(0.0,-1.0,0.0));
#224=DIRECTION('',(0.0,0.0,-1.0));
#225=AXIS2_PLACEMENT_3D('',#222,#223,#224);
#226=CIRCLE('',#225,3.2);
#227=EDGE_CURVE('',#219,#221,#226,.T.);
#228=ORIENTED_EDGE('',*,*,#227,.T.);
#229=CARTESIAN_POINT('',(0.0,0.0,0.0));
#230=DIRECTION('',(0.0,-1.0,0.0));
#231=DIRECTION('',(0.0,0.0,-1.0));
#232=AXIS2_PLACEMENT_3D('',#229,#230,#231);
#233=CIRCLE('',#232,3.2);
#234=EDGE_CURVE('',#221,#219,#233,.T.);
#235=ORIENTED_EDGE('',*,*,#234,.T.);
#236=EDGE_LOOP('',(#228,#235));
#237=FACE_BOUND('',#236,.T.);
#238=ADVANCED_FACE('',(#237),#217,.T.);
#239=CARTESIAN_POINT('',(0.0,0.0,0.0));
#240=DIRECTION('',(0.0,1.0,0.0));
#241=DIRECTION('',(0.0,-0.0,1.0));
#242=AXIS2_PLACEMENT_3D('',#239,#240,#241);
#243=CONICAL_SURFACE('',#242,3.2,45.0);
#244=CARTESIAN_POINT('',(0.0,0.8,4.0));
#245=DIRECTION('',(-0.0,-0.707106781,-0.707106781));
#246=VECTOR('',#245,1.13137085);
#247=LINE('',#244,#246);
#248=EDGE_CURVE('',#195,#221,#247,.T.);
#249=ORIENTED_EDGE('',*,*,#248,.T.);
#250=ORIENTED_EDGE('',*,*,#227,.F.);
#251=ORIENTED_EDGE('',*,*,#234,.F.);
#252=ORIENTED_EDGE('',*,*,#248,.F.);
#253=ORIENTED_EDGE('',*,*,#201,.F.);
#254=ORIENTED_EDGE('',*,*,#208,.F.);
#255=EDGE_LOOP('',(#249,#250,#251,#252,#253,#254));
#256=FACE_BOUND('',#255,.T.);
#257=ADVANCED_FACE('',(#256),#243,.T.);
#258=CLOSED_SHELL('',(#63,#88,#108,#133,#153,#178,#212,#238,#257));
#259=MANIFOLD_SOLID_BREP('',#258);
#260=COLOUR_RGB('',0.752941191,0.752941191,0.752941191);
#261=FILL_AREA_STYLE_COLOUR('',#260);
#262=FILL_AREA_STYLE('',(#261));
#263=SURFACE_STYLE_FILL_AREA(#262);
#264=SURFACE_SIDE_STYLE('',(#263));
#265=SURFACE_STYLE_USAGE(.BOTH.,#264);
#266=PRESENTATION_STYLE_ASSIGNMENT((#265));
#46=STYLED_ITEM('',(#266),#259);
#33=SHAPE_REPRESENTATION('D\S\ifaut',(#32),#27);
#267=ADVANCED_BREP_SHAPE_REPRESENTATION('D\S\ifaut',(#259),#27);
#268=SHAPE_REPRESENTATION_RELATIONSHIP('','',#33,#267);
#269=APPLICATION_CONTEXT('data for automotive mechanical design processes');
#270=APPLICATION_PROTOCOL_DEFINITION('international standard','automotive_design',1994,#269);
#271=PRODUCT_CONTEXT('',#269,'mechanical');
#272=PRODUCT_DEFINITION_CONTEXT('part definition',#269,'design');
#35=PRODUCT('D\S\ifaut','D\S\ifaut','',(#271));
#273=PRODUCT_RELATED_PRODUCT_CATEGORY('part','',(#35));
#274=PRODUCT_DEFINITION_FORMATION_WITH_SPECIFIED_SOURCE('','',#35,.NOT_KNOWN.);
#36=PRODUCT_DEFINITION('design','',#274,#272);
#34=PRODUCT_DEFINITION_SHAPE('','',#36);
#275=SHAPE_DEFINITION_REPRESENTATION(#34,#33);
#28=DRAUGHTING_MODEL('',(),#27);
#16=SHAPE_REPRESENTATION('Capteur',(#15,#40),#10);
#18=PRODUCT('Capteur','Capteur','',(#271));
#276=PRODUCT_RELATED_PRODUCT_CATEGORY('part','',(#18));
#277=PRODUCT_DEFINITION_FORMATION_WITH_SPECIFIED_SOURCE('','',#18,.NOT_KNOWN.);
#19=PRODUCT_DEFINITION('design','',#277,#272);
#17=PRODUCT_DEFINITION_SHAPE('','',#19);
#278=SHAPE_DEFINITION_REPRESENTATION(#17,#16);
#11=DRAUGHTING_MODEL('',(),#10);
#1=MECHANICAL_DESIGN_GEOMETRIC_PRESENTATION_REPRESENTATION('',(#46),#10);
ENDSEC;
END-ISO-10303-21;
