ISO-10303-21;
HEADER;

/* File generated by HOOPS Exchange Version 10.0.20 */

FILE_DESCRIPTION(('HOOPS Exchange Step'),'2;1');

FILE_NAME('c:\\tempstorage\\9065945207082564\\Axe court .step',
'2018-12-28T16:47:03+00:00',
('SYSTEM'),
('Unknown organisation'),
'HOOPS Exchange 10.0',
'HOOPS Exchange',
'Unknown authorisation');

FILE_SCHEMA( ('AUTOMOTIVE_DESIGN { 1 0 10303 214 1 1 1 1 }') );

ENDSEC;

DATA;
#3=(NAMED_UNIT(*)PLANE_ANGLE_UNIT()SI_UNIT($,.RADIAN.));
#4=PLANE_ANGLE_MEASURE_WITH_UNIT(PLANE_ANGLE_MEASURE(0.0174532925),#3);
#5=(CONVERSION_BASED_UNIT('DEGREE',#4)NAMED_UNIT(#6)PLANE_ANGLE_UNIT());
#6=DIMENSIONAL_EXPONENTS(0.,0.,0.,0.,0.,0.,0.);
#7=(NAMED_UNIT(*)SI_UNIT($,.STERADIAN.)SOLID_ANGLE_UNIT());
#8=(LENGTH_UNIT()NAMED_UNIT(*)SI_UNIT(.MILLI.,.METRE.));
#9=UNCERTAINTY_MEASURE_WITH_UNIT(LENGTH_MEASURE(1.000000E-005),#8,'DISTANCE_ACCURACY_VALUE','Maximum Tolerance applied to model');
#10=(GEOMETRIC_REPRESENTATION_CONTEXT(3)GLOBAL_UNCERTAINTY_ASSIGNED_CONTEXT((#9))GLOBAL_UNIT_ASSIGNED_CONTEXT((#8,#5,#7))REPRESENTATION_CONTEXT('','Axe court '));
#12=CARTESIAN_POINT('',(0.0,0.0,0.0));
#13=DIRECTION('',(0.0,0.0,1.0));
#14=DIRECTION('',(1.0,0.0,0.0));
#15=AXIS2_PLACEMENT_3D('',#12,#13,#14);
#20=(NAMED_UNIT(*)PLANE_ANGLE_UNIT()SI_UNIT($,.RADIAN.));
#21=PLANE_ANGLE_MEASURE_WITH_UNIT(PLANE_ANGLE_MEASURE(0.0174532925),#20);
#22=(CONVERSION_BASED_UNIT('DEGREE',#21)NAMED_UNIT(#23)PLANE_ANGLE_UNIT());
#23=DIMENSIONAL_EXPONENTS(0.,0.,0.,0.,0.,0.,0.);
#24=(NAMED_UNIT(*)SI_UNIT($,.STERADIAN.)SOLID_ANGLE_UNIT());
#25=(LENGTH_UNIT()NAMED_UNIT(*)SI_UNIT(.MILLI.,.METRE.));
#26=UNCERTAINTY_MEASURE_WITH_UNIT(LENGTH_MEASURE(1.000000E-005),#25,'DISTANCE_ACCURACY_VALUE','Maximum Tolerance applied to model');
#27=(GEOMETRIC_REPRESENTATION_CONTEXT(3)GLOBAL_UNCERTAINTY_ASSIGNED_CONTEXT((#26))GLOBAL_UNIT_ASSIGNED_CONTEXT((#25,#22,#24))REPRESENTATION_CONTEXT('','D\S\ifaut'));
#29=CARTESIAN_POINT('',(0.0,0.0,0.0));
#30=DIRECTION('',(0.0,0.0,1.0));
#31=DIRECTION('',(1.0,0.0,0.0));
#32=AXIS2_PLACEMENT_3D('',#29,#30,#31);
#37=CARTESIAN_POINT('',(0.0,0.0,0.0));
#38=DIRECTION('',(0.0,0.0,1.0));
#39=DIRECTION('',(1.0,0.0,0.0));
#40=AXIS2_PLACEMENT_3D('',#37,#38,#39);
#41=ITEM_DEFINED_TRANSFORMATION('','',#40,#32);
#42=(REPRESENTATION_RELATIONSHIP('','',#33,#16)REPRESENTATION_RELATIONSHIP_WITH_TRANSFORMATION(#41)SHAPE_REPRESENTATION_RELATIONSHIP());
#43=NEXT_ASSEMBLY_USAGE_OCCURRENCE('D\S\ifaut_1','D\S\ifaut','D\S\ifaut',#19,#36,$);
#44=PRODUCT_DEFINITION_SHAPE('','',#43);
#45=CONTEXT_DEPENDENT_SHAPE_REPRESENTATION(#42,#44);
#47=CARTESIAN_POINT('',(0.0,0.0,3.85));
#48=DIRECTION('',(0.0,0.0,-1.0));
#49=DIRECTION('',(-1.0,0.0,0.0));
#50=AXIS2_PLACEMENT_3D('',#47,#48,#49);
#51=CYLINDRICAL_SURFACE('',#50,2.5);
#52=CARTESIAN_POINT('',(-2.5,3.061617E-016,-2.85));
#53=VERTEX_POINT('',#52);
#54=CARTESIAN_POINT('',(-2.5,3.061617E-016,2.85));
#55=VERTEX_POINT('',#54);
#56=CARTESIAN_POINT('',(-2.5,0.0,-2.85));
#57=DIRECTION('',(-0.0,-0.0,1.0));
#58=VECTOR('',#57,5.7);
#59=LINE('',#56,#58);
#60=EDGE_CURVE('',#53,#55,#59,.T.);
#61=ORIENTED_EDGE('',*,*,#60,.T.);
#62=CARTESIAN_POINT('',(2.5,-3.061617E-016,2.85));
#63=VERTEX_POINT('',#62);
#64=CARTESIAN_POINT('',(0.0,0.0,2.85));
#65=DIRECTION('',(-0.0,-0.0,-1.0));
#66=DIRECTION('',(1.0,0.0,-0.0));
#67=AXIS2_PLACEMENT_3D('',#64,#65,#66);
#68=CIRCLE('',#67,2.5);
#69=EDGE_CURVE('',#55,#63,#68,.T.);
#70=ORIENTED_EDGE('',*,*,#69,.T.);
#71=CARTESIAN_POINT('',(0.0,0.0,2.85));
#72=DIRECTION('',(-0.0,-0.0,-1.0));
#73=DIRECTION('',(1.0,0.0,-0.0));
#74=AXIS2_PLACEMENT_3D('',#71,#72,#73);
#75=CIRCLE('',#74,2.5);
#76=EDGE_CURVE('',#63,#55,#75,.T.);
#77=ORIENTED_EDGE('',*,*,#76,.T.);
#78=ORIENTED_EDGE('',*,*,#60,.F.);
#79=CARTESIAN_POINT('',(2.5,-3.061617E-016,-2.85));
#80=VERTEX_POINT('',#79);
#81=CARTESIAN_POINT('',(0.0,0.0,-2.85));
#82=DIRECTION('',(0.0,0.0,1.0));
#83=DIRECTION('',(1.0,0.0,-0.0));
#84=AXIS2_PLACEMENT_3D('',#81,#82,#83);
#85=CIRCLE('',#84,2.5);
#86=EDGE_CURVE('',#53,#80,#85,.T.);
#87=ORIENTED_EDGE('',*,*,#86,.T.);
#88=CARTESIAN_POINT('',(0.0,0.0,-2.85));
#89=DIRECTION('',(0.0,0.0,1.0));
#90=DIRECTION('',(1.0,0.0,-0.0));
#91=AXIS2_PLACEMENT_3D('',#88,#89,#90);
#92=CIRCLE('',#91,2.5);
#93=EDGE_CURVE('',#80,#53,#92,.T.);
#94=ORIENTED_EDGE('',*,*,#93,.T.);
#95=EDGE_LOOP('',(#61,#70,#77,#78,#87,#94));
#96=FACE_BOUND('',#95,.T.);
#97=ADVANCED_FACE('',(#96),#51,.T.);
#98=CARTESIAN_POINT('',(0.0,0.0,3.85));
#99=DIRECTION('',(0.0,0.0,1.0));
#100=DIRECTION('',(1.0,0.0,-0.0));
#101=AXIS2_PLACEMENT_3D('',#98,#99,#100);
#102=PLANE('',#101);
#103=CARTESIAN_POINT('',(1.5,-1.8369702E-016,3.85));
#104=VERTEX_POINT('',#103);
#105=CARTESIAN_POINT('',(-1.5,1.8369702E-016,3.85));
#106=VERTEX_POINT('',#105);
#107=CARTESIAN_POINT('',(0.0,0.0,3.85));
#108=DIRECTION('',(0.0,0.0,1.0));
#109=DIRECTION('',(1.0,0.0,-0.0));
#110=AXIS2_PLACEMENT_3D('',#107,#108,#109);
#111=CIRCLE('',#110,1.5);
#112=EDGE_CURVE('',#104,#106,#111,.T.);
#113=ORIENTED_EDGE('',*,*,#112,.T.);
#114=CARTESIAN_POINT('',(0.0,0.0,3.85));
#115=DIRECTION('',(0.0,0.0,1.0));
#116=DIRECTION('',(1.0,0.0,-0.0));
#117=AXIS2_PLACEMENT_3D('',#114,#115,#116);
#118=CIRCLE('',#117,1.5);
#119=EDGE_CURVE('',#106,#104,#118,.T.);
#120=ORIENTED_EDGE('',*,*,#119,.T.);
#121=EDGE_LOOP('',(#113,#120));
#122=FACE_BOUND('',#121,.T.);
#123=ADVANCED_FACE('',(#122),#102,.T.);
#124=CARTESIAN_POINT('',(0.0,0.0,-3.85));
#125=DIRECTION('',(0.0,0.0,1.0));
#126=DIRECTION('',(1.0,0.0,-0.0));
#127=AXIS2_PLACEMENT_3D('',#124,#125,#126);
#128=PLANE('',#127);
#129=CARTESIAN_POINT('',(1.5,-1.8369702E-016,-3.85));
#130=VERTEX_POINT('',#129);
#131=CARTESIAN_POINT('',(0.0,0.0,-3.85));
#132=DIRECTION('',(-0.0,-0.0,-1.0));
#133=DIRECTION('',(1.0,0.0,-0.0));
#134=AXIS2_PLACEMENT_3D('',#131,#132,#133);
#135=CIRCLE('',#134,1.5);
#136=EDGE_CURVE('',#130,#130,#135,.T.);
#137=ORIENTED_EDGE('',*,*,#136,.T.);
#138=EDGE_LOOP('',(#137));
#139=FACE_BOUND('',#138,.T.);
#140=ADVANCED_FACE('',(#139),#128,.F.);
#141=CARTESIAN_POINT('',(0.0,0.0,3.85));
#142=DIRECTION('',(0.0,0.0,-1.0));
#143=DIRECTION('',(-1.0,0.0,0.0));
#144=AXIS2_PLACEMENT_3D('',#141,#142,#143);
#145=CONICAL_SURFACE('',#144,1.5,45.0);
#146=CARTESIAN_POINT('',(-2.5,0.0,2.85));
#147=DIRECTION('',(0.707106781,-0.0,0.707106781));
#148=VECTOR('',#147,1.41421356);
#149=LINE('',#146,#148);
#150=EDGE_CURVE('',#55,#106,#149,.T.);
#151=ORIENTED_EDGE('',*,*,#150,.T.);
#152=ORIENTED_EDGE('',*,*,#112,.F.);
#153=ORIENTED_EDGE('',*,*,#119,.F.);
#154=ORIENTED_EDGE('',*,*,#150,.F.);
#155=ORIENTED_EDGE('',*,*,#76,.F.);
#156=ORIENTED_EDGE('',*,*,#69,.F.);
#157=EDGE_LOOP('',(#151,#152,#153,#154,#155,#156));
#158=FACE_BOUND('',#157,.T.);
#159=ADVANCED_FACE('',(#158),#145,.T.);
#160=CARTESIAN_POINT('',(0.0,0.0,-2.85));
#161=DIRECTION('',(0.0,0.0,1.0));
#162=DIRECTION('',(1.0,0.0,-0.0));
#163=AXIS2_PLACEMENT_3D('',#160,#161,#162);
#164=CONICAL_SURFACE('',#163,2.5,45.0);
#165=CARTESIAN_POINT('',(2.5,0.0,-2.85));
#166=DIRECTION('',(-0.707106781,-0.0,-0.707106781));
#167=VECTOR('',#166,1.41421356);
#168=LINE('',#165,#167);
#169=EDGE_CURVE('',#80,#130,#168,.T.);
#170=ORIENTED_EDGE('',*,*,#169,.T.);
#171=ORIENTED_EDGE('',*,*,#136,.F.);
#172=ORIENTED_EDGE('',*,*,#169,.F.);
#173=ORIENTED_EDGE('',*,*,#86,.F.);
#174=ORIENTED_EDGE('',*,*,#93,.F.);
#175=EDGE_LOOP('',(#170,#171,#172,#173,#174));
#176=FACE_BOUND('',#175,.T.);
#177=ADVANCED_FACE('',(#176),#164,.T.);
#178=CLOSED_SHELL('',(#97,#123,#140,#159,#177));
#179=MANIFOLD_SOLID_BREP('',#178);
#180=COLOUR_RGB('',0.752941191,0.752941191,0.752941191);
#181=FILL_AREA_STYLE_COLOUR('',#180);
#182=FILL_AREA_STYLE('',(#181));
#183=SURFACE_STYLE_FILL_AREA(#182);
#184=SURFACE_SIDE_STYLE('',(#183));
#185=SURFACE_STYLE_USAGE(.BOTH.,#184);
#186=PRESENTATION_STYLE_ASSIGNMENT((#185));
#46=STYLED_ITEM('',(#186),#179);
#33=SHAPE_REPRESENTATION('D\S\ifaut',(#32),#27);
#187=ADVANCED_BREP_SHAPE_REPRESENTATION('D\S\ifaut',(#179),#27);
#188=SHAPE_REPRESENTATION_RELATIONSHIP('','',#33,#187);
#189=APPLICATION_CONTEXT('data for automotive mechanical design processes');
#190=APPLICATION_PROTOCOL_DEFINITION('international standard','automotive_design',1994,#189);
#191=PRODUCT_CONTEXT('',#189,'mechanical');
#192=PRODUCT_DEFINITION_CONTEXT('part definition',#189,'design');
#35=PRODUCT('D\S\ifaut','D\S\ifaut','',(#191));
#193=PRODUCT_RELATED_PRODUCT_CATEGORY('part','',(#35));
#194=PRODUCT_DEFINITION_FORMATION_WITH_SPECIFIED_SOURCE('','',#35,.NOT_KNOWN.);
#36=PRODUCT_DEFINITION('design','',#194,#192);
#34=PRODUCT_DEFINITION_SHAPE('','',#36);
#195=SHAPE_DEFINITION_REPRESENTATION(#34,#33);
#28=DRAUGHTING_MODEL('',(),#27);
#16=SHAPE_REPRESENTATION('Axe court ',(#15,#40),#10);
#18=PRODUCT('Axe court ','Axe court ','',(#191));
#196=PRODUCT_RELATED_PRODUCT_CATEGORY('part','',(#18));
#197=PRODUCT_DEFINITION_FORMATION_WITH_SPECIFIED_SOURCE('','',#18,.NOT_KNOWN.);
#19=PRODUCT_DEFINITION('design','',#197,#192);
#17=PRODUCT_DEFINITION_SHAPE('','',#19);
#198=SHAPE_DEFINITION_REPRESENTATION(#17,#16);
#11=DRAUGHTING_MODEL('',(),#10);
#1=MECHANICAL_DESIGN_GEOMETRIC_PRESENTATION_REPRESENTATION('',(#46),#10);
ENDSEC;
END-ISO-10303-21;
