ISO-10303-21;
HEADER;

/* File generated by HOOPS Exchange Version 10.0.20 */

FILE_DESCRIPTION(('HOOPS Exchange Step'),'2;1');

FILE_NAME('c:\\tempstorage\\7977552996368537\\Biellette.step',
'2018-12-28T16:48:11+00:00',
('SYSTEM'),
('Unknown organisation'),
'HOOPS Exchange 10.0',
'HOOPS Exchange',
'Unknown authorisation');

FILE_SCHEMA( ('AUTOMOTIVE_DESIGN { 1 0 10303 214 1 1 1 1 }') );

ENDSEC;

DATA;
#3=(NAMED_UNIT(*)PLANE_ANGLE_UNIT()SI_UNIT($,.RADIAN.));
#4=PLANE_ANGLE_MEASURE_WITH_UNIT(PLANE_ANGLE_MEASURE(0.0174532925),#3);
#5=(CONVERSION_BASED_UNIT('DEGREE',#4)NAMED_UNIT(#6)PLANE_ANGLE_UNIT());
#6=DIMENSIONAL_EXPONENTS(0.,0.,0.,0.,0.,0.,0.);
#7=(NAMED_UNIT(*)SI_UNIT($,.STERADIAN.)SOLID_ANGLE_UNIT());
#8=(LENGTH_UNIT()NAMED_UNIT(*)SI_UNIT(.MILLI.,.METRE.));
#9=UNCERTAINTY_MEASURE_WITH_UNIT(LENGTH_MEASURE(1.000000E-005),#8,'DISTANCE_ACCURACY_VALUE','Maximum Tolerance applied to model');
#10=(GEOMETRIC_REPRESENTATION_CONTEXT(3)GLOBAL_UNCERTAINTY_ASSIGNED_CONTEXT((#9))GLOBAL_UNIT_ASSIGNED_CONTEXT((#8,#5,#7))REPRESENTATION_CONTEXT('','Biellette'));
#12=CARTESIAN_POINT('',(0.0,0.0,0.0));
#13=DIRECTION('',(0.0,0.0,1.0));
#14=DIRECTION('',(1.0,0.0,0.0));
#15=AXIS2_PLACEMENT_3D('',#12,#13,#14);
#20=(NAMED_UNIT(*)PLANE_ANGLE_UNIT()SI_UNIT($,.RADIAN.));
#21=PLANE_ANGLE_MEASURE_WITH_UNIT(PLANE_ANGLE_MEASURE(0.0174532925),#20);
#22=(CONVERSION_BASED_UNIT('DEGREE',#21)NAMED_UNIT(#23)PLANE_ANGLE_UNIT());
#23=DIMENSIONAL_EXPONENTS(0.,0.,0.,0.,0.,0.,0.);
#24=(NAMED_UNIT(*)SI_UNIT($,.STERADIAN.)SOLID_ANGLE_UNIT());
#25=(LENGTH_UNIT()NAMED_UNIT(*)SI_UNIT(.MILLI.,.METRE.));
#26=UNCERTAINTY_MEASURE_WITH_UNIT(LENGTH_MEASURE(1.000000E-005),#25,'DISTANCE_ACCURACY_VALUE','Maximum Tolerance applied to model');
#27=(GEOMETRIC_REPRESENTATION_CONTEXT(3)GLOBAL_UNCERTAINTY_ASSIGNED_CONTEXT((#26))GLOBAL_UNIT_ASSIGNED_CONTEXT((#25,#22,#24))REPRESENTATION_CONTEXT('','D\S\ifaut'));
#29=CARTESIAN_POINT('',(0.0,0.0,0.0));
#30=DIRECTION('',(0.0,0.0,1.0));
#31=DIRECTION('',(1.0,0.0,0.0));
#32=AXIS2_PLACEMENT_3D('',#29,#30,#31);
#37=CARTESIAN_POINT('',(0.0,0.0,0.0));
#38=DIRECTION('',(0.0,0.0,1.0));
#39=DIRECTION('',(1.0,0.0,0.0));
#40=AXIS2_PLACEMENT_3D('',#37,#38,#39);
#41=ITEM_DEFINED_TRANSFORMATION('','',#40,#32);
#42=(REPRESENTATION_RELATIONSHIP('','',#33,#16)REPRESENTATION_RELATIONSHIP_WITH_TRANSFORMATION(#41)SHAPE_REPRESENTATION_RELATIONSHIP());
#43=NEXT_ASSEMBLY_USAGE_OCCURRENCE('D\S\ifaut_1','D\S\ifaut','D\S\ifaut',#19,#36,$);
#44=PRODUCT_DEFINITION_SHAPE('','',#43);
#45=CONTEXT_DEPENDENT_SHAPE_REPRESENTATION(#42,#44);
#47=CARTESIAN_POINT('',(19.55,4.0,2.625));
#48=DIRECTION('',(-1.0,-4.33680869E-016,0.0));
#49=DIRECTION('',(4.33680869E-016,-1.0,0.0));
#50=AXIS2_PLACEMENT_3D('',#47,#48,#49);
#51=PLANE('',#50);
#52=CARTESIAN_POINT('',(19.55,-2.5,2.625));
#53=VERTEX_POINT('',#52);
#54=CARTESIAN_POINT('',(19.55,2.5,2.625));
#55=VERTEX_POINT('',#54);
#56=CARTESIAN_POINT('',(19.55,-2.5,2.625));
#57=DIRECTION('',(-4.33680869E-016,1.0,0.0));
#58=VECTOR('',#57,5.0);
#59=LINE('',#56,#58);
#60=EDGE_CURVE('',#53,#55,#59,.T.);
#61=ORIENTED_EDGE('',*,*,#60,.F.);
#62=CARTESIAN_POINT('',(19.55,-2.5,-0.875));
#63=VERTEX_POINT('',#62);
#64=CARTESIAN_POINT('',(19.55,-2.5,2.625));
#65=DIRECTION('',(0.0,0.0,-1.0));
#66=VECTOR('',#65,3.5);
#67=LINE('',#64,#66);
#68=EDGE_CURVE('',#53,#63,#67,.T.);
#69=ORIENTED_EDGE('',*,*,#68,.T.);
#70=CARTESIAN_POINT('',(19.55,2.5,-0.875));
#71=VERTEX_POINT('',#70);
#72=CARTESIAN_POINT('',(19.55,2.5,-0.875));
#73=DIRECTION('',(4.33680869E-016,-1.0,0.0));
#74=VECTOR('',#73,5.0);
#75=LINE('',#72,#74);
#76=EDGE_CURVE('',#71,#63,#75,.T.);
#77=ORIENTED_EDGE('',*,*,#76,.F.);
#78=CARTESIAN_POINT('',(19.55,2.5,-0.875));
#79=DIRECTION('',(0.0,0.0,1.0));
#80=VECTOR('',#79,3.5);
#81=LINE('',#78,#80);
#82=EDGE_CURVE('',#71,#55,#81,.T.);
#83=ORIENTED_EDGE('',*,*,#82,.T.);
#84=EDGE_LOOP('',(#61,#69,#77,#83));
#85=FACE_BOUND('',#84,.T.);
#86=ADVANCED_FACE('',(#85),#51,.F.);
#87=CARTESIAN_POINT('',(15.6,1.91038591E-015,2.625));
#88=DIRECTION('',(0.0,0.0,-1.0));
#89=DIRECTION('',(-1.0,0.0,0.0));
#90=AXIS2_PLACEMENT_3D('',#87,#88,#89);
#91=CYLINDRICAL_SURFACE('',#90,2.5);
#92=CARTESIAN_POINT('',(13.1,1.60422421E-015,-0.875));
#93=VERTEX_POINT('',#92);
#94=CARTESIAN_POINT('',(13.1,2.21654761E-015,2.625));
#95=VERTEX_POINT('',#94);
#96=CARTESIAN_POINT('',(13.1,1.91038591E-015,-0.875));
#97=DIRECTION('',(-0.0,-0.0,1.0));
#98=VECTOR('',#97,3.5);
#99=LINE('',#96,#98);
#100=EDGE_CURVE('',#93,#95,#99,.T.);
#101=ORIENTED_EDGE('',*,*,#100,.F.);
#102=CARTESIAN_POINT('',(15.6,1.91038591E-015,-0.875));
#103=DIRECTION('',(0.0,0.0,-1.0));
#104=DIRECTION('',(-1.0,0.0,0.0));
#105=AXIS2_PLACEMENT_3D('',#102,#103,#104);
#106=CIRCLE('',#105,2.5);
#107=EDGE_CURVE('',#93,#93,#106,.T.);
#108=ORIENTED_EDGE('',*,*,#107,.T.);
#109=ORIENTED_EDGE('',*,*,#100,.T.);
#110=CARTESIAN_POINT('',(15.6,1.91038591E-015,2.625));
#111=DIRECTION('',(0.0,0.0,1.0));
#112=DIRECTION('',(-1.0,0.0,0.0));
#113=AXIS2_PLACEMENT_3D('',#110,#111,#112);
#114=CIRCLE('',#113,2.5);
#115=EDGE_CURVE('',#95,#95,#114,.T.);
#116=ORIENTED_EDGE('',*,*,#115,.T.);
#117=EDGE_LOOP('',(#101,#108,#109,#116));
#118=FACE_BOUND('',#117,.T.);
#119=ADVANCED_FACE('',(#118),#91,.F.);
#120=CARTESIAN_POINT('',(-3.95,4.0,2.625));
#121=DIRECTION('',(1.0,0.0,0.0));
#122=DIRECTION('',(0.0,0.0,-1.0));
#123=AXIS2_PLACEMENT_3D('',#120,#121,#122);
#124=PLANE('',#123);
#125=CARTESIAN_POINT('',(-3.95,2.5,0.875));
#126=VERTEX_POINT('',#125);
#127=CARTESIAN_POINT('',(-3.95,-2.5,0.875));
#128=VERTEX_POINT('',#127);
#129=CARTESIAN_POINT('',(-3.95,2.5,0.875));
#130=DIRECTION('',(0.0,-1.0,0.0));
#131=VECTOR('',#130,5.0);
#132=LINE('',#129,#131);
#133=EDGE_CURVE('',#126,#128,#132,.T.);
#134=ORIENTED_EDGE('',*,*,#133,.F.);
#135=CARTESIAN_POINT('',(-3.95,2.5,-2.625));
#136=VERTEX_POINT('',#135);
#137=CARTESIAN_POINT('',(-3.95,2.5,0.875));
#138=DIRECTION('',(0.0,0.0,-1.0));
#139=VECTOR('',#138,3.5);
#140=LINE('',#137,#139);
#141=EDGE_CURVE('',#126,#136,#140,.T.);
#142=ORIENTED_EDGE('',*,*,#141,.T.);
#143=CARTESIAN_POINT('',(-3.95,-2.5,-2.625));
#144=VERTEX_POINT('',#143);
#145=CARTESIAN_POINT('',(-3.95,2.5,-2.625));
#146=DIRECTION('',(0.0,-1.0,0.0));
#147=VECTOR('',#146,5.0);
#148=LINE('',#145,#147);
#149=EDGE_CURVE('',#136,#144,#148,.T.);
#150=ORIENTED_EDGE('',*,*,#149,.T.);
#151=CARTESIAN_POINT('',(-3.95,-2.5,-2.625));
#152=DIRECTION('',(0.0,0.0,1.0));
#153=VECTOR('',#152,3.5);
#154=LINE('',#151,#153);
#155=EDGE_CURVE('',#144,#128,#154,.T.);
#156=ORIENTED_EDGE('',*,*,#155,.T.);
#157=EDGE_LOOP('',(#134,#142,#150,#156));
#158=FACE_BOUND('',#157,.T.);
#159=ADVANCED_FACE('',(#158),#124,.F.);
#160=CARTESIAN_POINT('',(0.0,0.0,2.625));
#161=DIRECTION('',(0.0,0.0,-1.0));
#162=DIRECTION('',(-1.0,0.0,0.0));
#163=AXIS2_PLACEMENT_3D('',#160,#161,#162);
#164=CYLINDRICAL_SURFACE('',#163,2.5);
#165=CARTESIAN_POINT('',(-2.5,3.061617E-016,-2.625));
#166=VERTEX_POINT('',#165);
#167=CARTESIAN_POINT('',(-2.5,3.061617E-016,0.875));
#168=VERTEX_POINT('',#167);
#169=CARTESIAN_POINT('',(-2.5,0.0,-2.625));
#170=DIRECTION('',(-0.0,-0.0,1.0));
#171=VECTOR('',#170,3.5);
#172=LINE('',#169,#171);
#173=EDGE_CURVE('',#166,#168,#172,.T.);
#174=ORIENTED_EDGE('',*,*,#173,.F.);
#175=CARTESIAN_POINT('',(2.5,-3.061617E-016,-2.625));
#176=VERTEX_POINT('',#175);
#177=CARTESIAN_POINT('',(0.0,0.0,-2.625));
#178=DIRECTION('',(0.0,0.0,1.0));
#179=DIRECTION('',(1.0,0.0,-0.0));
#180=AXIS2_PLACEMENT_3D('',#177,#178,#179);
#181=CIRCLE('',#180,2.5);
#182=EDGE_CURVE('',#176,#166,#181,.T.);
#183=ORIENTED_EDGE('',*,*,#182,.F.);
#184=CARTESIAN_POINT('',(0.0,0.0,-2.625));
#185=DIRECTION('',(0.0,0.0,1.0));
#186=DIRECTION('',(1.0,0.0,-0.0));
#187=AXIS2_PLACEMENT_3D('',#184,#185,#186);
#188=CIRCLE('',#187,2.5);
#189=EDGE_CURVE('',#166,#176,#188,.T.);
#190=ORIENTED_EDGE('',*,*,#189,.F.);
#191=ORIENTED_EDGE('',*,*,#173,.T.);
#192=CARTESIAN_POINT('',(2.5,-3.061617E-016,0.875));
#193=VERTEX_POINT('',#192);
#194=CARTESIAN_POINT('',(0.0,0.0,0.875));
#195=DIRECTION('',(0.0,0.0,1.0));
#196=DIRECTION('',(1.0,0.0,-0.0));
#197=AXIS2_PLACEMENT_3D('',#194,#195,#196);
#198=CIRCLE('',#197,2.5);
#199=EDGE_CURVE('',#168,#193,#198,.T.);
#200=ORIENTED_EDGE('',*,*,#199,.T.);
#201=CARTESIAN_POINT('',(0.0,0.0,0.875));
#202=DIRECTION('',(0.0,0.0,1.0));
#203=DIRECTION('',(1.0,0.0,-0.0));
#204=AXIS2_PLACEMENT_3D('',#201,#202,#203);
#205=CIRCLE('',#204,2.5);
#206=EDGE_CURVE('',#193,#168,#205,.T.);
#207=ORIENTED_EDGE('',*,*,#206,.T.);
#208=EDGE_LOOP('',(#174,#183,#190,#191,#200,#207));
#209=FACE_BOUND('',#208,.T.);
#210=ADVANCED_FACE('',(#209),#164,.F.);
#211=CARTESIAN_POINT('',(-3.95,-4.0,2.625));
#212=DIRECTION('',(0.0,0.0,1.0));
#213=DIRECTION('',(1.0,0.0,-0.0));
#214=AXIS2_PLACEMENT_3D('',#211,#212,#213);
#215=PLANE('',#214);
#216=CARTESIAN_POINT('',(6.05,-4.0,2.625));
#217=VERTEX_POINT('',#216);
#218=CARTESIAN_POINT('',(18.05,-4.0,2.625));
#219=VERTEX_POINT('',#218);
#220=CARTESIAN_POINT('',(6.05,-4.0,2.625));
#221=DIRECTION('',(1.0,1.1072703E-016,0.0));
#222=VECTOR('',#221,12.0);
#223=LINE('',#220,#222);
#224=EDGE_CURVE('',#217,#219,#223,.T.);
#225=ORIENTED_EDGE('',*,*,#224,.T.);
#226=CARTESIAN_POINT('',(18.05,-4.0,2.625));
#227=DIRECTION('',(0.707106781,0.707106781,-0.0));
#228=VECTOR('',#227,2.12132034);
#229=LINE('',#226,#228);
#230=EDGE_CURVE('',#219,#53,#229,.T.);
#231=ORIENTED_EDGE('',*,*,#230,.T.);
#232=ORIENTED_EDGE('',*,*,#60,.T.);
#233=CARTESIAN_POINT('',(18.05,4.0,2.625));
#234=VERTEX_POINT('',#233);
#235=CARTESIAN_POINT('',(19.55,2.5,2.625));
#236=DIRECTION('',(-0.707106781,0.707106781,-0.0));
#237=VECTOR('',#236,2.12132034);
#238=LINE('',#235,#237);
#239=EDGE_CURVE('',#55,#234,#238,.T.);
#240=ORIENTED_EDGE('',*,*,#239,.T.);
#241=CARTESIAN_POINT('',(6.05,4.0,2.625));
#242=VERTEX_POINT('',#241);
#243=CARTESIAN_POINT('',(18.05,4.0,2.625));
#244=DIRECTION('',(-1.0,-1.1072703E-016,0.0));
#245=VECTOR('',#244,12.0);
#246=LINE('',#243,#245);
#247=EDGE_CURVE('',#234,#242,#246,.T.);
#248=ORIENTED_EDGE('',*,*,#247,.T.);
#249=CARTESIAN_POINT('',(6.05,-4.0,2.625));
#250=DIRECTION('',(0.0,1.0,0.0));
#251=VECTOR('',#250,8.0);
#252=LINE('',#249,#251);
#253=EDGE_CURVE('',#217,#242,#252,.T.);
#254=ORIENTED_EDGE('',*,*,#253,.F.);
#255=EDGE_LOOP('',(#225,#231,#232,#240,#248,#254));
#256=FACE_BOUND('',#255,.T.);
#257=ORIENTED_EDGE('',*,*,#115,.F.);
#258=EDGE_LOOP('',(#257));
#259=FACE_BOUND('',#258,.T.);
#260=ADVANCED_FACE('',(#256,#259),#215,.T.);
#261=CARTESIAN_POINT('',(-3.95,-4.0,-2.625));
#262=DIRECTION('',(0.0,0.0,1.0));
#263=DIRECTION('',(1.0,0.0,-0.0));
#264=AXIS2_PLACEMENT_3D('',#261,#262,#263);
#265=PLANE('',#264);
#266=ORIENTED_EDGE('',*,*,#182,.T.);
#267=ORIENTED_EDGE('',*,*,#189,.T.);
#268=EDGE_LOOP('',(#266,#267));
#269=FACE_BOUND('',#268,.T.);
#270=ORIENTED_EDGE('',*,*,#149,.F.);
#271=CARTESIAN_POINT('',(-2.45,4.0,-2.625));
#272=VERTEX_POINT('',#271);
#273=CARTESIAN_POINT('',(-3.95,2.5,-2.625));
#274=DIRECTION('',(0.707106781,0.707106781,-0.0));
#275=VECTOR('',#274,2.12132034);
#276=LINE('',#273,#275);
#277=EDGE_CURVE('',#136,#272,#276,.T.);
#278=ORIENTED_EDGE('',*,*,#277,.T.);
#279=CARTESIAN_POINT('',(9.55,4.0,-2.625));
#280=VERTEX_POINT('',#279);
#281=CARTESIAN_POINT('',(9.55,4.0,-2.625));
#282=DIRECTION('',(-1.0,-1.1072703E-016,0.0));
#283=VECTOR('',#282,12.0);
#284=LINE('',#281,#283);
#285=EDGE_CURVE('',#280,#272,#284,.T.);
#286=ORIENTED_EDGE('',*,*,#285,.F.);
#287=CARTESIAN_POINT('',(9.55,-2.0,-2.625));
#288=VERTEX_POINT('',#287);
#289=CARTESIAN_POINT('',(9.55,-2.0,-2.625));
#290=DIRECTION('',(2.89120579E-016,1.0,0.0));
#291=VECTOR('',#290,6.0);
#292=LINE('',#289,#291);
#293=EDGE_CURVE('',#288,#280,#292,.T.);
#294=ORIENTED_EDGE('',*,*,#293,.F.);
#295=CARTESIAN_POINT('',(6.08589838,-4.0,-2.625));
#296=VERTEX_POINT('',#295);
#297=CARTESIAN_POINT('',(6.08589838,-4.0,-2.625));
#298=DIRECTION('',(0.866025404,0.5,0.0));
#299=VECTOR('',#298,4.0);
#300=LINE('',#297,#299);
#301=EDGE_CURVE('',#296,#288,#300,.T.);
#302=ORIENTED_EDGE('',*,*,#301,.F.);
#303=CARTESIAN_POINT('',(-2.45,-4.0,-2.625));
#304=VERTEX_POINT('',#303);
#305=CARTESIAN_POINT('',(-2.45,-4.0,-2.625));
#306=DIRECTION('',(1.0,1.1072703E-016,0.0));
#307=VECTOR('',#306,8.53589838);
#308=LINE('',#305,#307);
#309=EDGE_CURVE('',#304,#296,#308,.T.);
#310=ORIENTED_EDGE('',*,*,#309,.F.);
#311=CARTESIAN_POINT('',(-2.45,-4.0,-2.625));
#312=DIRECTION('',(-0.707106781,0.707106781,-0.0));
#313=VECTOR('',#312,2.12132034);
#314=LINE('',#311,#313);
#315=EDGE_CURVE('',#304,#144,#314,.T.);
#316=ORIENTED_EDGE('',*,*,#315,.T.);
#317=EDGE_LOOP('',(#270,#278,#286,#294,#302,#310,#316));
#318=FACE_BOUND('',#317,.T.);
#319=ADVANCED_FACE('',(#269,#318),#265,.F.);
#320=CARTESIAN_POINT('',(-3.95,-4.0,2.625));
#321=DIRECTION('',(-1.1072703E-016,1.0,0.0));
#322=DIRECTION('',(-1.0,-1.1072703E-016,0.0));
#323=AXIS2_PLACEMENT_3D('',#320,#321,#322);
#324=PLANE('',#323);
#325=CARTESIAN_POINT('',(18.05,-4.0,-0.875));
#326=VERTEX_POINT('',#325);
#327=CARTESIAN_POINT('',(6.08589838,-4.0,-0.875));
#328=VERTEX_POINT('',#327);
#329=CARTESIAN_POINT('',(18.05,-4.0,-0.875));
#330=DIRECTION('',(-1.0,-1.93260961E-016,0.0));
#331=VECTOR('',#330,11.9641016);
#332=LINE('',#329,#331);
#333=EDGE_CURVE('',#326,#328,#332,.T.);
#334=ORIENTED_EDGE('',*,*,#333,.F.);
#335=CARTESIAN_POINT('',(18.05,-4.0,-0.875));
#336=DIRECTION('',(0.0,0.0,1.0));
#337=VECTOR('',#336,3.5);
#338=LINE('',#335,#337);
#339=EDGE_CURVE('',#326,#219,#338,.T.);
#340=ORIENTED_EDGE('',*,*,#339,.T.);
#341=ORIENTED_EDGE('',*,*,#224,.F.);
#342=CARTESIAN_POINT('',(6.05,-4.0,0.875));
#343=VERTEX_POINT('',#342);
#344=CARTESIAN_POINT('',(6.05,-4.0,0.875));
#345=DIRECTION('',(0.0,0.0,1.0));
#346=VECTOR('',#345,1.75);
#347=LINE('',#344,#346);
#348=EDGE_CURVE('',#343,#217,#347,.T.);
#349=ORIENTED_EDGE('',*,*,#348,.F.);
#350=CARTESIAN_POINT('',(-2.45,-4.0,0.875));
#351=VERTEX_POINT('',#350);
#352=CARTESIAN_POINT('',(-2.45,-4.0,0.875));
#353=DIRECTION('',(1.0,0.0,-0.0));
#354=VECTOR('',#353,8.5);
#355=LINE('',#352,#354);
#356=EDGE_CURVE('',#351,#343,#355,.T.);
#357=ORIENTED_EDGE('',*,*,#356,.F.);
#358=CARTESIAN_POINT('',(-2.45,-4.0,0.875));
#359=DIRECTION('',(0.0,0.0,-1.0));
#360=VECTOR('',#359,3.5);
#361=LINE('',#358,#360);
#362=EDGE_CURVE('',#351,#304,#361,.T.);
#363=ORIENTED_EDGE('',*,*,#362,.T.);
#364=ORIENTED_EDGE('',*,*,#309,.T.);
#365=CARTESIAN_POINT('',(6.08589838,-4.0,-0.875));
#366=DIRECTION('',(0.0,0.0,-1.0));
#367=VECTOR('',#366,1.75);
#368=LINE('',#365,#367);
#369=EDGE_CURVE('',#328,#296,#368,.T.);
#370=ORIENTED_EDGE('',*,*,#369,.F.);
#371=EDGE_LOOP('',(#334,#340,#341,#349,#357,#363,#364,#370));
#372=FACE_BOUND('',#371,.T.);
#373=ADVANCED_FACE('',(#372),#324,.F.);
#374=CARTESIAN_POINT('',(-3.95,4.0,2.625));
#375=DIRECTION('',(1.1072703E-016,-1.0,0.0));
#376=DIRECTION('',(1.0,1.1072703E-016,0.0));
#377=AXIS2_PLACEMENT_3D('',#374,#375,#376);
#378=PLANE('',#377);
#379=ORIENTED_EDGE('',*,*,#247,.F.);
#380=CARTESIAN_POINT('',(18.05,4.0,-0.875));
#381=VERTEX_POINT('',#380);
#382=CARTESIAN_POINT('',(18.05,4.0,2.625));
#383=DIRECTION('',(0.0,0.0,-1.0));
#384=VECTOR('',#383,3.5);
#385=LINE('',#382,#384);
#386=EDGE_CURVE('',#234,#381,#385,.T.);
#387=ORIENTED_EDGE('',*,*,#386,.T.);
#388=CARTESIAN_POINT('',(9.55,4.0,-0.875));
#389=VERTEX_POINT('',#388);
#390=CARTESIAN_POINT('',(9.55,4.0,-0.875));
#391=DIRECTION('',(1.0,8.67361738E-017,0.0));
#392=VECTOR('',#391,8.5);
#393=LINE('',#390,#392);
#394=EDGE_CURVE('',#389,#381,#393,.T.);
#395=ORIENTED_EDGE('',*,*,#394,.F.);
#396=CARTESIAN_POINT('',(9.55,4.0,-0.875));
#397=DIRECTION('',(0.0,0.0,-1.0));
#398=VECTOR('',#397,1.75);
#399=LINE('',#396,#398);
#400=EDGE_CURVE('',#389,#280,#399,.T.);
#401=ORIENTED_EDGE('',*,*,#400,.T.);
#402=ORIENTED_EDGE('',*,*,#285,.T.);
#403=CARTESIAN_POINT('',(-2.45,4.0,0.875));
#404=VERTEX_POINT('',#403);
#405=CARTESIAN_POINT('',(-2.45,4.0,-2.625));
#406=DIRECTION('',(0.0,0.0,1.0));
#407=VECTOR('',#406,3.5);
#408=LINE('',#405,#407);
#409=EDGE_CURVE('',#272,#404,#408,.T.);
#410=ORIENTED_EDGE('',*,*,#409,.T.);
#411=CARTESIAN_POINT('',(6.05,4.0,0.875));
#412=VERTEX_POINT('',#411);
#413=CARTESIAN_POINT('',(6.05,4.0,0.875));
#414=DIRECTION('',(-1.0,-3.46944695E-016,0.0));
#415=VECTOR('',#414,8.5);
#416=LINE('',#413,#415);
#417=EDGE_CURVE('',#412,#404,#416,.T.);
#418=ORIENTED_EDGE('',*,*,#417,.F.);
#419=CARTESIAN_POINT('',(6.05,4.0,0.875));
#420=DIRECTION('',(0.0,0.0,1.0));
#421=VECTOR('',#420,1.75);
#422=LINE('',#419,#421);
#423=EDGE_CURVE('',#412,#242,#422,.T.);
#424=ORIENTED_EDGE('',*,*,#423,.T.);
#425=EDGE_LOOP('',(#379,#387,#395,#401,#402,#410,#418,#424));
#426=FACE_BOUND('',#425,.T.);
#427=ADVANCED_FACE('',(#426),#378,.F.);
#428=CARTESIAN_POINT('',(6.05,-4.0,0.875));
#429=DIRECTION('',(1.0,0.0,0.0));
#430=DIRECTION('',(0.0,0.0,-1.0));
#431=AXIS2_PLACEMENT_3D('',#428,#429,#430);
#432=PLANE('',#431);
#433=ORIENTED_EDGE('',*,*,#253,.T.);
#434=ORIENTED_EDGE('',*,*,#423,.F.);
#435=CARTESIAN_POINT('',(6.05,-4.0,0.875));
#436=DIRECTION('',(0.0,1.0,0.0));
#437=VECTOR('',#436,8.0);
#438=LINE('',#435,#437);
#439=EDGE_CURVE('',#343,#412,#438,.T.);
#440=ORIENTED_EDGE('',*,*,#439,.F.);
#441=ORIENTED_EDGE('',*,*,#348,.T.);
#442=EDGE_LOOP('',(#433,#434,#440,#441));
#443=FACE_BOUND('',#442,.T.);
#444=ADVANCED_FACE('',(#443),#432,.F.);
#445=CARTESIAN_POINT('',(6.05,-4.0,0.875));
#446=DIRECTION('',(0.0,0.0,1.0));
#447=DIRECTION('',(1.0,0.0,-0.0));
#448=AXIS2_PLACEMENT_3D('',#445,#446,#447);
#449=PLANE('',#448);
#450=ORIENTED_EDGE('',*,*,#199,.F.);
#451=ORIENTED_EDGE('',*,*,#206,.F.);
#452=EDGE_LOOP('',(#450,#451));
#453=FACE_BOUND('',#452,.T.);
#454=ORIENTED_EDGE('',*,*,#417,.T.);
#455=CARTESIAN_POINT('',(-2.45,4.0,0.875));
#456=DIRECTION('',(-0.707106781,-0.707106781,-0.0));
#457=VECTOR('',#456,2.12132034);
#458=LINE('',#455,#457);
#459=EDGE_CURVE('',#404,#126,#458,.T.);
#460=ORIENTED_EDGE('',*,*,#459,.T.);
#461=ORIENTED_EDGE('',*,*,#133,.T.);
#462=CARTESIAN_POINT('',(-3.95,-2.5,0.875));
#463=DIRECTION('',(0.707106781,-0.707106781,-0.0));
#464=VECTOR('',#463,2.12132034);
#465=LINE('',#462,#464);
#466=EDGE_CURVE('',#128,#351,#465,.T.);
#467=ORIENTED_EDGE('',*,*,#466,.T.);
#468=ORIENTED_EDGE('',*,*,#356,.T.);
#469=ORIENTED_EDGE('',*,*,#439,.T.);
#470=EDGE_LOOP('',(#454,#460,#461,#467,#468,#469));
#471=FACE_BOUND('',#470,.T.);
#472=ADVANCED_FACE('',(#453,#471),#449,.T.);
#473=CARTESIAN_POINT('',(9.55,4.0,-0.875));
#474=DIRECTION('',(-1.0,2.89120579E-016,0.0));
#475=DIRECTION('',(-2.89120579E-016,-1.0,0.0));
#476=AXIS2_PLACEMENT_3D('',#473,#474,#475);
#477=PLANE('',#476);
#478=ORIENTED_EDGE('',*,*,#293,.T.);
#479=ORIENTED_EDGE('',*,*,#400,.F.);
#480=CARTESIAN_POINT('',(9.55,-2.0,-0.875));
#481=VERTEX_POINT('',#480);
#482=CARTESIAN_POINT('',(9.55,-2.0,-0.875));
#483=DIRECTION('',(2.89120579E-016,1.0,0.0));
#484=VECTOR('',#483,6.0);
#485=LINE('',#482,#484);
#486=EDGE_CURVE('',#481,#389,#485,.T.);
#487=ORIENTED_EDGE('',*,*,#486,.F.);
#488=CARTESIAN_POINT('',(9.55,-2.0,-0.875));
#489=DIRECTION('',(0.0,0.0,-1.0));
#490=VECTOR('',#489,1.75);
#491=LINE('',#488,#490);
#492=EDGE_CURVE('',#481,#288,#491,.T.);
#493=ORIENTED_EDGE('',*,*,#492,.T.);
#494=EDGE_LOOP('',(#478,#479,#487,#493));
#495=FACE_BOUND('',#494,.T.);
#496=ADVANCED_FACE('',(#495),#477,.F.);
#497=CARTESIAN_POINT('',(9.55,-2.0,-0.875));
#498=DIRECTION('',(-0.5,0.866025404,0.0));
#499=DIRECTION('',(-0.866025404,-0.5,0.0));
#500=AXIS2_PLACEMENT_3D('',#497,#498,#499);
#501=PLANE('',#500);
#502=ORIENTED_EDGE('',*,*,#301,.T.);
#503=ORIENTED_EDGE('',*,*,#492,.F.);
#504=CARTESIAN_POINT('',(6.08589838,-4.0,-0.875));
#505=DIRECTION('',(0.866025404,0.5,0.0));
#506=VECTOR('',#505,4.0);
#507=LINE('',#504,#506);
#508=EDGE_CURVE('',#328,#481,#507,.T.);
#509=ORIENTED_EDGE('',*,*,#508,.F.);
#510=ORIENTED_EDGE('',*,*,#369,.T.);
#511=EDGE_LOOP('',(#502,#503,#509,#510));
#512=FACE_BOUND('',#511,.T.);
#513=ADVANCED_FACE('',(#512),#501,.F.);
#514=CARTESIAN_POINT('',(19.55,4.0,-0.875));
#515=DIRECTION('',(0.0,0.0,-1.0));
#516=DIRECTION('',(-1.0,0.0,0.0));
#517=AXIS2_PLACEMENT_3D('',#514,#515,#516);
#518=PLANE('',#517);
#519=ORIENTED_EDGE('',*,*,#107,.F.);
#520=EDGE_LOOP('',(#519));
#521=FACE_BOUND('',#520,.T.);
#522=ORIENTED_EDGE('',*,*,#76,.T.);
#523=CARTESIAN_POINT('',(19.55,-2.5,-0.875));
#524=DIRECTION('',(-0.707106781,-0.707106781,-0.0));
#525=VECTOR('',#524,2.12132034);
#526=LINE('',#523,#525);
#527=EDGE_CURVE('',#63,#326,#526,.T.);
#528=ORIENTED_EDGE('',*,*,#527,.T.);
#529=ORIENTED_EDGE('',*,*,#333,.T.);
#530=ORIENTED_EDGE('',*,*,#508,.T.);
#531=ORIENTED_EDGE('',*,*,#486,.T.);
#532=ORIENTED_EDGE('',*,*,#394,.T.);
#533=CARTESIAN_POINT('',(18.05,4.0,-0.875));
#534=DIRECTION('',(0.707106781,-0.707106781,-0.0));
#535=VECTOR('',#534,2.12132034);
#536=LINE('',#533,#535);
#537=EDGE_CURVE('',#381,#71,#536,.T.);
#538=ORIENTED_EDGE('',*,*,#537,.T.);
#539=EDGE_LOOP('',(#522,#528,#529,#530,#531,#532,#538));
#540=FACE_BOUND('',#539,.T.);
#541=ADVANCED_FACE('',(#521,#540),#518,.T.);
#542=CARTESIAN_POINT('',(19.55,-2.5,2.625));
#543=DIRECTION('',(-0.707106781,0.707106781,0.0));
#544=DIRECTION('',(-0.707106781,-0.707106781,0.0));
#545=AXIS2_PLACEMENT_3D('',#542,#543,#544);
#546=PLANE('',#545);
#547=ORIENTED_EDGE('',*,*,#230,.F.);
#548=ORIENTED_EDGE('',*,*,#339,.F.);
#549=ORIENTED_EDGE('',*,*,#527,.F.);
#550=ORIENTED_EDGE('',*,*,#68,.F.);
#551=EDGE_LOOP('',(#547,#548,#549,#550));
#552=FACE_BOUND('',#551,.T.);
#553=ADVANCED_FACE('',(#552),#546,.F.);
#554=CARTESIAN_POINT('',(18.05,4.0,2.625));
#555=DIRECTION('',(-0.707106781,-0.707106781,0.0));
#556=DIRECTION('',(0.707106781,-0.707106781,0.0));
#557=AXIS2_PLACEMENT_3D('',#554,#555,#556);
#558=PLANE('',#557);
#559=ORIENTED_EDGE('',*,*,#239,.F.);
#560=ORIENTED_EDGE('',*,*,#82,.F.);
#561=ORIENTED_EDGE('',*,*,#537,.F.);
#562=ORIENTED_EDGE('',*,*,#386,.F.);
#563=EDGE_LOOP('',(#559,#560,#561,#562));
#564=FACE_BOUND('',#563,.T.);
#565=ADVANCED_FACE('',(#564),#558,.F.);
#566=CARTESIAN_POINT('',(-3.95,2.5,2.625));
#567=DIRECTION('',(0.707106781,-0.707106781,0.0));
#568=DIRECTION('',(0.707106781,0.707106781,0.0));
#569=AXIS2_PLACEMENT_3D('',#566,#567,#568);
#570=PLANE('',#569);
#571=ORIENTED_EDGE('',*,*,#459,.F.);
#572=ORIENTED_EDGE('',*,*,#409,.F.);
#573=ORIENTED_EDGE('',*,*,#277,.F.);
#574=ORIENTED_EDGE('',*,*,#141,.F.);
#575=EDGE_LOOP('',(#571,#572,#573,#574));
#576=FACE_BOUND('',#575,.T.);
#577=ADVANCED_FACE('',(#576),#570,.F.);
#578=CARTESIAN_POINT('',(-2.45,-4.0,2.625));
#579=DIRECTION('',(0.707106781,0.707106781,0.0));
#580=DIRECTION('',(-0.707106781,0.707106781,0.0));
#581=AXIS2_PLACEMENT_3D('',#578,#579,#580);
#582=PLANE('',#581);
#583=ORIENTED_EDGE('',*,*,#466,.F.);
#584=ORIENTED_EDGE('',*,*,#155,.F.);
#585=ORIENTED_EDGE('',*,*,#315,.F.);
#586=ORIENTED_EDGE('',*,*,#362,.F.);
#587=EDGE_LOOP('',(#583,#584,#585,#586));
#588=FACE_BOUND('',#587,.T.);
#589=ADVANCED_FACE('',(#588),#582,.F.);
#590=CLOSED_SHELL('',(#86,#119,#159,#210,#260,#319,#373,#427,#444,#472,#496,#513,#541,#553,#565,#577,#589));
#591=MANIFOLD_SOLID_BREP('',#590);
#592=DRAUGHTING_PRE_DEFINED_COLOUR('yellow');
#593=FILL_AREA_STYLE_COLOUR('',#592);
#594=FILL_AREA_STYLE('',(#593));
#595=SURFACE_STYLE_FILL_AREA(#594);
#596=SURFACE_SIDE_STYLE('',(#595));
#597=SURFACE_STYLE_USAGE(.BOTH.,#596);
#598=PRESENTATION_STYLE_ASSIGNMENT((#597));
#46=STYLED_ITEM('',(#598),#591);
#33=SHAPE_REPRESENTATION('D\S\ifaut',(#32),#27);
#599=ADVANCED_BREP_SHAPE_REPRESENTATION('D\S\ifaut',(#591),#27);
#600=SHAPE_REPRESENTATION_RELATIONSHIP('','',#33,#599);
#601=APPLICATION_CONTEXT('data for automotive mechanical design processes');
#602=APPLICATION_PROTOCOL_DEFINITION('international standard','automotive_design',1994,#601);
#603=PRODUCT_CONTEXT('',#601,'mechanical');
#604=PRODUCT_DEFINITION_CONTEXT('part definition',#601,'design');
#35=PRODUCT('D\S\ifaut','D\S\ifaut','',(#603));
#605=PRODUCT_RELATED_PRODUCT_CATEGORY('part','',(#35));
#606=PRODUCT_DEFINITION_FORMATION_WITH_SPECIFIED_SOURCE('','',#35,.NOT_KNOWN.);
#36=PRODUCT_DEFINITION('design','',#606,#604);
#34=PRODUCT_DEFINITION_SHAPE('','',#36);
#607=SHAPE_DEFINITION_REPRESENTATION(#34,#33);
#28=DRAUGHTING_MODEL('',(),#27);
#16=SHAPE_REPRESENTATION('Biellette',(#15,#40),#10);
#18=PRODUCT('Biellette','Biellette','',(#603));
#608=PRODUCT_RELATED_PRODUCT_CATEGORY('part','',(#18));
#609=PRODUCT_DEFINITION_FORMATION_WITH_SPECIFIED_SOURCE('','',#18,.NOT_KNOWN.);
#19=PRODUCT_DEFINITION('design','',#609,#604);
#17=PRODUCT_DEFINITION_SHAPE('','',#19);
#610=SHAPE_DEFINITION_REPRESENTATION(#17,#16);
#11=DRAUGHTING_MODEL('',(),#10);
#1=MECHANICAL_DESIGN_GEOMETRIC_PRESENTATION_REPRESENTATION('',(#46),#10);
ENDSEC;
END-ISO-10303-21;
