ISO-10303-21;
HEADER;

/* File generated by HOOPS Exchange Version 10.0.20 */

FILE_DESCRIPTION(('HOOPS Exchange Step'),'2;1');

FILE_NAME('c:\\tempstorage\\2567984941944095\\Anneau elastique.step',
'2018-12-28T16:46:31+00:00',
('SYSTEM'),
('Unknown organisation'),
'HOOPS Exchange 10.0',
'HOOPS Exchange',
'Unknown authorisation');

FILE_SCHEMA( ('AUTOMOTIVE_DESIGN { 1 0 10303 214 1 1 1 1 }') );

ENDSEC;

DATA;
#3=(NAMED_UNIT(*)PLANE_ANGLE_UNIT()SI_UNIT($,.RADIAN.));
#4=PLANE_ANGLE_MEASURE_WITH_UNIT(PLANE_ANGLE_MEASURE(0.0174532925),#3);
#5=(CONVERSION_BASED_UNIT('DEGREE',#4)NAMED_UNIT(#6)PLANE_ANGLE_UNIT());
#6=DIMENSIONAL_EXPONENTS(0.,0.,0.,0.,0.,0.,0.);
#7=(NAMED_UNIT(*)SI_UNIT($,.STERADIAN.)SOLID_ANGLE_UNIT());
#8=(LENGTH_UNIT()NAMED_UNIT(*)SI_UNIT(.MILLI.,.METRE.));
#9=UNCERTAINTY_MEASURE_WITH_UNIT(LENGTH_MEASURE(1.000000E-005),#8,'DISTANCE_ACCURACY_VALUE','Maximum Tolerance applied to model');
#10=(GEOMETRIC_REPRESENTATION_CONTEXT(3)GLOBAL_UNCERTAINTY_ASSIGNED_CONTEXT((#9))GLOBAL_UNIT_ASSIGNED_CONTEXT((#8,#5,#7))REPRESENTATION_CONTEXT('','Anneau elastique'));
#12=CARTESIAN_POINT('',(0.0,0.0,0.0));
#13=DIRECTION('',(0.0,0.0,1.0));
#14=DIRECTION('',(1.0,0.0,0.0));
#15=AXIS2_PLACEMENT_3D('',#12,#13,#14);
#20=(NAMED_UNIT(*)PLANE_ANGLE_UNIT()SI_UNIT($,.RADIAN.));
#21=PLANE_ANGLE_MEASURE_WITH_UNIT(PLANE_ANGLE_MEASURE(0.0174532925),#20);
#22=(CONVERSION_BASED_UNIT('DEGREE',#21)NAMED_UNIT(#23)PLANE_ANGLE_UNIT());
#23=DIMENSIONAL_EXPONENTS(0.,0.,0.,0.,0.,0.,0.);
#24=(NAMED_UNIT(*)SI_UNIT($,.STERADIAN.)SOLID_ANGLE_UNIT());
#25=(LENGTH_UNIT()NAMED_UNIT(*)SI_UNIT(.MILLI.,.METRE.));
#26=UNCERTAINTY_MEASURE_WITH_UNIT(LENGTH_MEASURE(1.000000E-005),#25,'DISTANCE_ACCURACY_VALUE','Maximum Tolerance applied to model');
#27=(GEOMETRIC_REPRESENTATION_CONTEXT(3)GLOBAL_UNCERTAINTY_ASSIGNED_CONTEXT((#26))GLOBAL_UNIT_ASSIGNED_CONTEXT((#25,#22,#24))REPRESENTATION_CONTEXT('','D\S\ifaut'));
#29=CARTESIAN_POINT('',(0.0,0.0,0.0));
#30=DIRECTION('',(0.0,0.0,1.0));
#31=DIRECTION('',(1.0,0.0,0.0));
#32=AXIS2_PLACEMENT_3D('',#29,#30,#31);
#37=CARTESIAN_POINT('',(0.0,0.0,0.0));
#38=DIRECTION('',(0.0,0.0,1.0));
#39=DIRECTION('',(1.0,0.0,0.0));
#40=AXIS2_PLACEMENT_3D('',#37,#38,#39);
#41=ITEM_DEFINED_TRANSFORMATION('','',#40,#32);
#42=(REPRESENTATION_RELATIONSHIP('','',#33,#16)REPRESENTATION_RELATIONSHIP_WITH_TRANSFORMATION(#41)SHAPE_REPRESENTATION_RELATIONSHIP());
#43=NEXT_ASSEMBLY_USAGE_OCCURRENCE('D\S\ifaut_1','D\S\ifaut','D\S\ifaut',#19,#36,$);
#44=PRODUCT_DEFINITION_SHAPE('','',#43);
#45=CONTEXT_DEPENDENT_SHAPE_REPRESENTATION(#42,#44);
#47=CARTESIAN_POINT('',(0.252219626,3.65673069,0.75));
#48=DIRECTION('',(0.0,0.0,1.0));
#49=DIRECTION('',(1.0,0.0,-0.0));
#50=AXIS2_PLACEMENT_3D('',#47,#48,#49);
#51=PLANE('',#50);
#52=CARTESIAN_POINT('',(-2.32278037,-0.0425935771,0.75));
#53=VERTEX_POINT('',#52);
#54=CARTESIAN_POINT('',(-0.822780374,-0.0425935771,0.75));
#55=VERTEX_POINT('',#54);
#56=CARTESIAN_POINT('',(-1.57278037,-0.0425935771,0.75));
#57=DIRECTION('',(0.0,0.0,1.0));
#58=DIRECTION('',(1.0,0.0,-0.0));
#59=AXIS2_PLACEMENT_3D('',#56,#57,#58);
#60=CIRCLE('',#59,0.75);
#61=EDGE_CURVE('',#53,#55,#60,.T.);
#62=ORIENTED_EDGE('',*,*,#61,.F.);
#63=CARTESIAN_POINT('',(-1.57278037,-0.0425935771,0.75));
#64=DIRECTION('',(0.0,0.0,1.0));
#65=DIRECTION('',(1.0,0.0,-0.0));
#66=AXIS2_PLACEMENT_3D('',#63,#64,#65);
#67=CIRCLE('',#66,0.75);
#68=EDGE_CURVE('',#55,#53,#67,.T.);
#69=ORIENTED_EDGE('',*,*,#68,.F.);
#70=EDGE_LOOP('',(#62,#69));
#71=FACE_BOUND('',#70,.T.);
#72=CARTESIAN_POINT('',(-2.09262886,-1.09634049,0.75));
#73=VERTEX_POINT('',#72);
#74=CARTESIAN_POINT('',(-0.397780374,-1.60325981,0.75));
#75=VERTEX_POINT('',#74);
#76=CARTESIAN_POINT('',(0.252219626,3.65673069,0.75));
#77=DIRECTION('',(0.0,0.0,1.0));
#78=DIRECTION('',(1.0,0.0,-0.0));
#79=AXIS2_PLACEMENT_3D('',#76,#77,#78);
#80=CIRCLE('',#79,5.3);
#81=EDGE_CURVE('',#73,#75,#80,.T.);
#82=ORIENTED_EDGE('',*,*,#81,.T.);
#83=CARTESIAN_POINT('',(-0.397780374,0.727993756,0.75));
#84=VERTEX_POINT('',#83);
#85=CARTESIAN_POINT('',(-0.397780374,-1.60325981,0.75));
#86=DIRECTION('',(0.0,1.0,0.0));
#87=VECTOR('',#86,2.33125357);
#88=LINE('',#85,#87);
#89=EDGE_CURVE('',#75,#84,#88,.T.);
#90=ORIENTED_EDGE('',*,*,#89,.T.);
#91=CARTESIAN_POINT('',(-2.74778037,3.65673069,0.75));
#92=VERTEX_POINT('',#91);
#93=CARTESIAN_POINT('',(0.252219626,3.65673069,0.75));
#94=DIRECTION('',(0.0,0.0,1.0));
#95=DIRECTION('',(1.0,0.0,-0.0));
#96=AXIS2_PLACEMENT_3D('',#93,#94,#95);
#97=CIRCLE('',#96,3.0);
#98=EDGE_CURVE('',#92,#84,#97,.T.);
#99=ORIENTED_EDGE('',*,*,#98,.F.);
#100=CARTESIAN_POINT('',(0.902219626,0.727993756,0.75));
#101=VERTEX_POINT('',#100);
#102=CARTESIAN_POINT('',(0.252219626,3.65673069,0.75));
#103=DIRECTION('',(0.0,0.0,1.0));
#104=DIRECTION('',(1.0,0.0,-0.0));
#105=AXIS2_PLACEMENT_3D('',#102,#103,#104);
#106=CIRCLE('',#105,3.0);
#107=EDGE_CURVE('',#101,#92,#106,.T.);
#108=ORIENTED_EDGE('',*,*,#107,.F.);
#109=CARTESIAN_POINT('',(0.902219626,-1.60325981,0.75));
#110=VERTEX_POINT('',#109);
#111=CARTESIAN_POINT('',(0.902219626,-1.60325981,0.75));
#112=DIRECTION('',(0.0,1.0,0.0));
#113=VECTOR('',#112,2.33125357);
#114=LINE('',#111,#113);
#115=EDGE_CURVE('',#110,#101,#114,.T.);
#116=ORIENTED_EDGE('',*,*,#115,.F.);
#117=CARTESIAN_POINT('',(2.59706811,-1.09634049,0.75));
#118=VERTEX_POINT('',#117);
#119=CARTESIAN_POINT('',(0.252219626,3.65673069,0.75));
#120=DIRECTION('',(0.0,0.0,1.0));
#121=DIRECTION('',(1.0,0.0,-0.0));
#122=AXIS2_PLACEMENT_3D('',#119,#120,#121);
#123=CIRCLE('',#122,5.3);
#124=EDGE_CURVE('',#110,#118,#123,.T.);
#125=ORIENTED_EDGE('',*,*,#124,.T.);
#126=CARTESIAN_POINT('',(3.25221963,-0.0425935771,0.75));
#127=VERTEX_POINT('',#126);
#128=CARTESIAN_POINT('',(2.07721963,-0.0425935771,0.75));
#129=DIRECTION('',(0.0,0.0,1.0));
#130=DIRECTION('',(1.0,0.0,-0.0));
#131=AXIS2_PLACEMENT_3D('',#128,#129,#130);
#132=CIRCLE('',#131,1.175);
#133=EDGE_CURVE('',#118,#127,#132,.T.);
#134=ORIENTED_EDGE('',*,*,#133,.T.);
#135=CARTESIAN_POINT('',(3.25221963,0.855261182,0.75));
#136=VERTEX_POINT('',#135);
#137=CARTESIAN_POINT('',(3.25221963,-0.0425935771,0.75));
#138=DIRECTION('',(-4.6833518E-012,1.0,0.0));
#139=VECTOR('',#138,0.897854759);
#140=LINE('',#137,#139);
#141=EDGE_CURVE('',#127,#136,#140,.T.);
#142=ORIENTED_EDGE('',*,*,#141,.T.);
#143=CARTESIAN_POINT('',(3.34824997,1.12434103,0.75));
#144=VERTEX_POINT('',#143);
#145=CARTESIAN_POINT('',(3.67721963,0.855261182,0.75));
#146=DIRECTION('',(0.0,0.0,-1.0));
#147=DIRECTION('',(-1.0,0.0,0.0));
#148=AXIS2_PLACEMENT_3D('',#145,#146,#147);
#149=CIRCLE('',#148,0.425);
#150=EDGE_CURVE('',#136,#144,#149,.T.);
#151=ORIENTED_EDGE('',*,*,#150,.T.);
#152=CARTESIAN_POINT('',(-3.74758053,3.65673069,0.75));
#153=VERTEX_POINT('',#152);
#154=CARTESIAN_POINT('',(0.252219626,3.65673069,0.75));
#155=DIRECTION('',(0.0,0.0,1.0));
#156=DIRECTION('',(1.0,0.0,-0.0));
#157=AXIS2_PLACEMENT_3D('',#154,#155,#156);
#158=CIRCLE('',#157,3.99980015);
#159=EDGE_CURVE('',#144,#153,#158,.T.);
#160=ORIENTED_EDGE('',*,*,#159,.T.);
#161=CARTESIAN_POINT('',(-2.84381071,1.12434103,0.75));
#162=VERTEX_POINT('',#161);
#163=CARTESIAN_POINT('',(0.252219626,3.65673069,0.75));
#164=DIRECTION('',(0.0,0.0,1.0));
#165=DIRECTION('',(1.0,0.0,-0.0));
#166=AXIS2_PLACEMENT_3D('',#163,#164,#165);
#167=CIRCLE('',#166,3.99980015);
#168=EDGE_CURVE('',#153,#162,#167,.T.);
#169=ORIENTED_EDGE('',*,*,#168,.T.);
#170=CARTESIAN_POINT('',(-2.74778037,0.855261182,0.75));
#171=VERTEX_POINT('',#170);
#172=CARTESIAN_POINT('',(-3.17278037,0.855261182,0.75));
#173=DIRECTION('',(0.0,0.0,1.0));
#174=DIRECTION('',(1.0,0.0,-0.0));
#175=AXIS2_PLACEMENT_3D('',#172,#173,#174);
#176=CIRCLE('',#175,0.425);
#177=EDGE_CURVE('',#171,#162,#176,.T.);
#178=ORIENTED_EDGE('',*,*,#177,.F.);
#179=CARTESIAN_POINT('',(-2.74778037,-0.0425935771,0.75));
#180=VERTEX_POINT('',#179);
#181=CARTESIAN_POINT('',(-2.74778037,-0.0425935771,0.75));
#182=DIRECTION('',(4.6756235E-012,1.0,0.0));
#183=VECTOR('',#182,0.897854759);
#184=LINE('',#181,#183);
#185=EDGE_CURVE('',#180,#171,#184,.T.);
#186=ORIENTED_EDGE('',*,*,#185,.F.);
#187=CARTESIAN_POINT('',(-1.57278037,-0.0425935771,0.75));
#188=DIRECTION('',(0.0,0.0,1.0));
#189=DIRECTION('',(1.0,0.0,-0.0));
#190=AXIS2_PLACEMENT_3D('',#187,#188,#189);
#191=CIRCLE('',#190,1.175);
#192=EDGE_CURVE('',#180,#73,#191,.T.);
#193=ORIENTED_EDGE('',*,*,#192,.T.);
#194=EDGE_LOOP('',(#82,#90,#99,#108,#116,#125,#134,#142,#151,#160,#169,#178,#186,#193));
#195=FACE_BOUND('',#194,.T.);
#196=CARTESIAN_POINT('',(1.32721963,-0.0425935771,0.75));
#197=VERTEX_POINT('',#196);
#198=CARTESIAN_POINT('',(2.82721963,-0.0425935771,0.75));
#199=VERTEX_POINT('',#198);
#200=CARTESIAN_POINT('',(2.07721963,-0.0425935771,0.75));
#201=DIRECTION('',(0.0,0.0,1.0));
#202=DIRECTION('',(1.0,0.0,-0.0));
#203=AXIS2_PLACEMENT_3D('',#200,#201,#202);
#204=CIRCLE('',#203,0.75);
#205=EDGE_CURVE('',#197,#199,#204,.T.);
#206=ORIENTED_EDGE('',*,*,#205,.F.);
#207=CARTESIAN_POINT('',(2.07721963,-0.0425935771,0.75));
#208=DIRECTION('',(0.0,0.0,1.0));
#209=DIRECTION('',(1.0,0.0,-0.0));
#210=AXIS2_PLACEMENT_3D('',#207,#208,#209);
#211=CIRCLE('',#210,0.75);
#212=EDGE_CURVE('',#199,#197,#211,.T.);
#213=ORIENTED_EDGE('',*,*,#212,.F.);
#214=EDGE_LOOP('',(#206,#213));
#215=FACE_BOUND('',#214,.T.);
#216=ADVANCED_FACE('',(#71,#195,#215),#51,.T.);
#217=CARTESIAN_POINT('',(0.252219626,3.65673069,0.0));
#218=DIRECTION('',(0.0,0.0,1.0));
#219=DIRECTION('',(1.0,0.0,-0.0));
#220=AXIS2_PLACEMENT_3D('',#217,#218,#219);
#221=PLANE('',#220);
#222=CARTESIAN_POINT('',(-0.822780374,-0.0425935771,0.0));
#223=VERTEX_POINT('',#222);
#224=CARTESIAN_POINT('',(-2.32278037,-0.0425935771,0.0));
#225=VERTEX_POINT('',#224);
#226=CARTESIAN_POINT('',(-1.57278037,-0.0425935771,0.0));
#227=DIRECTION('',(0.0,0.0,1.0));
#228=DIRECTION('',(1.0,0.0,-0.0));
#229=AXIS2_PLACEMENT_3D('',#226,#227,#228);
#230=CIRCLE('',#229,0.75);
#231=EDGE_CURVE('',#223,#225,#230,.T.);
#232=ORIENTED_EDGE('',*,*,#231,.T.);
#233=CARTESIAN_POINT('',(-1.57278037,-0.0425935771,0.0));
#234=DIRECTION('',(0.0,0.0,1.0));
#235=DIRECTION('',(1.0,0.0,-0.0));
#236=AXIS2_PLACEMENT_3D('',#233,#234,#235);
#237=CIRCLE('',#236,0.75);
#238=EDGE_CURVE('',#225,#223,#237,.T.);
#239=ORIENTED_EDGE('',*,*,#238,.T.);
#240=EDGE_LOOP('',(#232,#239));
#241=FACE_BOUND('',#240,.T.);
#242=CARTESIAN_POINT('',(-2.09262886,-1.09634049,0.0));
#243=VERTEX_POINT('',#242);
#244=CARTESIAN_POINT('',(-0.397780374,-1.60325981,0.0));
#245=VERTEX_POINT('',#244);
#246=CARTESIAN_POINT('',(0.252219626,3.65673069,0.0));
#247=DIRECTION('',(0.0,0.0,1.0));
#248=DIRECTION('',(1.0,0.0,-0.0));
#249=AXIS2_PLACEMENT_3D('',#246,#247,#248);
#250=CIRCLE('',#249,5.3);
#251=EDGE_CURVE('',#243,#245,#250,.T.);
#252=ORIENTED_EDGE('',*,*,#251,.F.);
#253=CARTESIAN_POINT('',(-2.74778037,-0.0425935771,0.0));
#254=VERTEX_POINT('',#253);
#255=CARTESIAN_POINT('',(-1.57278037,-0.0425935771,0.0));
#256=DIRECTION('',(0.0,0.0,1.0));
#257=DIRECTION('',(1.0,0.0,-0.0));
#258=AXIS2_PLACEMENT_3D('',#255,#256,#257);
#259=CIRCLE('',#258,1.175);
#260=EDGE_CURVE('',#254,#243,#259,.T.);
#261=ORIENTED_EDGE('',*,*,#260,.F.);
#262=CARTESIAN_POINT('',(-2.74778037,0.855261182,0.0));
#263=VERTEX_POINT('',#262);
#264=CARTESIAN_POINT('',(-2.74778037,-0.0425935771,0.0));
#265=DIRECTION('',(4.6756235E-012,1.0,0.0));
#266=VECTOR('',#265,0.897854759);
#267=LINE('',#264,#266);
#268=EDGE_CURVE('',#254,#263,#267,.T.);
#269=ORIENTED_EDGE('',*,*,#268,.T.);
#270=CARTESIAN_POINT('',(-2.84381071,1.12434103,0.0));
#271=VERTEX_POINT('',#270);
#272=CARTESIAN_POINT('',(-3.17278037,0.855261182,0.0));
#273=DIRECTION('',(0.0,0.0,1.0));
#274=DIRECTION('',(1.0,0.0,-0.0));
#275=AXIS2_PLACEMENT_3D('',#272,#273,#274);
#276=CIRCLE('',#275,0.425);
#277=EDGE_CURVE('',#263,#271,#276,.T.);
#278=ORIENTED_EDGE('',*,*,#277,.T.);
#279=CARTESIAN_POINT('',(-3.74758053,3.65673069,0.0));
#280=VERTEX_POINT('',#279);
#281=CARTESIAN_POINT('',(0.252219626,3.65673069,0.0));
#282=DIRECTION('',(0.0,0.0,1.0));
#283=DIRECTION('',(1.0,0.0,-0.0));
#284=AXIS2_PLACEMENT_3D('',#281,#282,#283);
#285=CIRCLE('',#284,3.99980015);
#286=EDGE_CURVE('',#280,#271,#285,.T.);
#287=ORIENTED_EDGE('',*,*,#286,.F.);
#288=CARTESIAN_POINT('',(3.34824997,1.12434103,0.0));
#289=VERTEX_POINT('',#288);
#290=CARTESIAN_POINT('',(0.252219626,3.65673069,0.0));
#291=DIRECTION('',(0.0,0.0,1.0));
#292=DIRECTION('',(1.0,0.0,-0.0));
#293=AXIS2_PLACEMENT_3D('',#290,#291,#292);
#294=CIRCLE('',#293,3.99980015);
#295=EDGE_CURVE('',#289,#280,#294,.T.);
#296=ORIENTED_EDGE('',*,*,#295,.F.);
#297=CARTESIAN_POINT('',(3.25221963,0.855261182,0.0));
#298=VERTEX_POINT('',#297);
#299=CARTESIAN_POINT('',(3.67721963,0.855261182,0.0));
#300=DIRECTION('',(0.0,0.0,-1.0));
#301=DIRECTION('',(-1.0,0.0,0.0));
#302=AXIS2_PLACEMENT_3D('',#299,#300,#301);
#303=CIRCLE('',#302,0.425);
#304=EDGE_CURVE('',#298,#289,#303,.T.);
#305=ORIENTED_EDGE('',*,*,#304,.F.);
#306=CARTESIAN_POINT('',(3.25221963,-0.0425935771,0.0));
#307=VERTEX_POINT('',#306);
#308=CARTESIAN_POINT('',(3.25221963,-0.0425935771,0.0));
#309=DIRECTION('',(-4.6833518E-012,1.0,0.0));
#310=VECTOR('',#309,0.897854759);
#311=LINE('',#308,#310);
#312=EDGE_CURVE('',#307,#298,#311,.T.);
#313=ORIENTED_EDGE('',*,*,#312,.F.);
#314=CARTESIAN_POINT('',(2.59706811,-1.09634049,0.0));
#315=VERTEX_POINT('',#314);
#316=CARTESIAN_POINT('',(2.07721963,-0.0425935771,0.0));
#317=DIRECTION('',(0.0,0.0,1.0));
#318=DIRECTION('',(1.0,0.0,-0.0));
#319=AXIS2_PLACEMENT_3D('',#316,#317,#318);
#320=CIRCLE('',#319,1.175);
#321=EDGE_CURVE('',#315,#307,#320,.T.);
#322=ORIENTED_EDGE('',*,*,#321,.F.);
#323=CARTESIAN_POINT('',(0.902219626,-1.60325981,0.0));
#324=VERTEX_POINT('',#323);
#325=CARTESIAN_POINT('',(0.252219626,3.65673069,0.0));
#326=DIRECTION('',(0.0,0.0,1.0));
#327=DIRECTION('',(1.0,0.0,-0.0));
#328=AXIS2_PLACEMENT_3D('',#325,#326,#327);
#329=CIRCLE('',#328,5.3);
#330=EDGE_CURVE('',#324,#315,#329,.T.);
#331=ORIENTED_EDGE('',*,*,#330,.F.);
#332=CARTESIAN_POINT('',(0.902219626,0.727993756,0.0));
#333=VERTEX_POINT('',#332);
#334=CARTESIAN_POINT('',(0.902219626,-1.60325981,0.0));
#335=DIRECTION('',(0.0,1.0,0.0));
#336=VECTOR('',#335,2.33125357);
#337=LINE('',#334,#336);
#338=EDGE_CURVE('',#324,#333,#337,.T.);
#339=ORIENTED_EDGE('',*,*,#338,.T.);
#340=CARTESIAN_POINT('',(-2.74778037,3.65673069,0.0));
#341=VERTEX_POINT('',#340);
#342=CARTESIAN_POINT('',(0.252219626,3.65673069,0.0));
#343=DIRECTION('',(0.0,0.0,1.0));
#344=DIRECTION('',(1.0,0.0,-0.0));
#345=AXIS2_PLACEMENT_3D('',#342,#343,#344);
#346=CIRCLE('',#345,3.0);
#347=EDGE_CURVE('',#333,#341,#346,.T.);
#348=ORIENTED_EDGE('',*,*,#347,.T.);
#349=CARTESIAN_POINT('',(-0.397780374,0.727993756,0.0));
#350=VERTEX_POINT('',#349);
#351=CARTESIAN_POINT('',(0.252219626,3.65673069,0.0));
#352=DIRECTION('',(0.0,0.0,1.0));
#353=DIRECTION('',(1.0,0.0,-0.0));
#354=AXIS2_PLACEMENT_3D('',#351,#352,#353);
#355=CIRCLE('',#354,3.0);
#356=EDGE_CURVE('',#341,#350,#355,.T.);
#357=ORIENTED_EDGE('',*,*,#356,.T.);
#358=CARTESIAN_POINT('',(-0.397780374,-1.60325981,0.0));
#359=DIRECTION('',(0.0,1.0,0.0));
#360=VECTOR('',#359,2.33125357);
#361=LINE('',#358,#360);
#362=EDGE_CURVE('',#245,#350,#361,.T.);
#363=ORIENTED_EDGE('',*,*,#362,.F.);
#364=EDGE_LOOP('',(#252,#261,#269,#278,#287,#296,#305,#313,#322,#331,#339,#348,#357,#363));
#365=FACE_BOUND('',#364,.T.);
#366=CARTESIAN_POINT('',(2.82721963,-0.0425935771,0.0));
#367=VERTEX_POINT('',#366);
#368=CARTESIAN_POINT('',(1.32721963,-0.0425935771,0.0));
#369=VERTEX_POINT('',#368);
#370=CARTESIAN_POINT('',(2.07721963,-0.0425935771,0.0));
#371=DIRECTION('',(0.0,0.0,1.0));
#372=DIRECTION('',(1.0,0.0,-0.0));
#373=AXIS2_PLACEMENT_3D('',#370,#371,#372);
#374=CIRCLE('',#373,0.75);
#375=EDGE_CURVE('',#367,#369,#374,.T.);
#376=ORIENTED_EDGE('',*,*,#375,.T.);
#377=CARTESIAN_POINT('',(2.07721963,-0.0425935771,0.0));
#378=DIRECTION('',(0.0,0.0,1.0));
#379=DIRECTION('',(1.0,0.0,-0.0));
#380=AXIS2_PLACEMENT_3D('',#377,#378,#379);
#381=CIRCLE('',#380,0.75);
#382=EDGE_CURVE('',#369,#367,#381,.T.);
#383=ORIENTED_EDGE('',*,*,#382,.T.);
#384=EDGE_LOOP('',(#376,#383));
#385=FACE_BOUND('',#384,.T.);
#386=ADVANCED_FACE('',(#241,#365,#385),#221,.F.);
#387=CARTESIAN_POINT('',(0.252219626,3.65673069,0.75));
#388=DIRECTION('',(0.0,0.0,-1.0));
#389=DIRECTION('',(-1.0,0.0,0.0));
#390=AXIS2_PLACEMENT_3D('',#387,#388,#389);
#391=CYLINDRICAL_SURFACE('',#390,5.3);
#392=ORIENTED_EDGE('',*,*,#251,.T.);
#393=CARTESIAN_POINT('',(-0.397780374,-1.60325981,0.75));
#394=DIRECTION('',(0.0,0.0,-1.0));
#395=VECTOR('',#394,0.75);
#396=LINE('',#393,#395);
#397=EDGE_CURVE('',#75,#245,#396,.T.);
#398=ORIENTED_EDGE('',*,*,#397,.F.);
#399=ORIENTED_EDGE('',*,*,#81,.F.);
#400=CARTESIAN_POINT('',(-2.09262886,-1.09634049,0.75));
#401=DIRECTION('',(0.0,0.0,-1.0));
#402=VECTOR('',#401,0.75);
#403=LINE('',#400,#402);
#404=EDGE_CURVE('',#73,#243,#403,.T.);
#405=ORIENTED_EDGE('',*,*,#404,.T.);
#406=EDGE_LOOP('',(#392,#398,#399,#405));
#407=FACE_BOUND('',#406,.T.);
#408=ADVANCED_FACE('',(#407),#391,.T.);
#409=CARTESIAN_POINT('',(-0.397780374,-1.60325981,0.75));
#410=DIRECTION('',(-1.0,0.0,0.0));
#411=DIRECTION('',(0.0,0.0,1.0));
#412=AXIS2_PLACEMENT_3D('',#409,#410,#411);
#413=PLANE('',#412);
#414=ORIENTED_EDGE('',*,*,#362,.T.);
#415=CARTESIAN_POINT('',(-0.397780374,0.727993756,0.75));
#416=DIRECTION('',(0.0,0.0,-1.0));
#417=VECTOR('',#416,0.75);
#418=LINE('',#415,#417);
#419=EDGE_CURVE('',#84,#350,#418,.T.);
#420=ORIENTED_EDGE('',*,*,#419,.F.);
#421=ORIENTED_EDGE('',*,*,#89,.F.);
#422=ORIENTED_EDGE('',*,*,#397,.T.);
#423=EDGE_LOOP('',(#414,#420,#421,#422));
#424=FACE_BOUND('',#423,.T.);
#425=ADVANCED_FACE('',(#424),#413,.F.);
#426=CARTESIAN_POINT('',(0.252219626,3.65673069,0.75));
#427=DIRECTION('',(0.0,0.0,-1.0));
#428=DIRECTION('',(-1.0,0.0,0.0));
#429=AXIS2_PLACEMENT_3D('',#426,#427,#428);
#430=CYLINDRICAL_SURFACE('',#429,3.0);
#431=CARTESIAN_POINT('',(-2.74778037,3.65673069,0.0));
#432=DIRECTION('',(-0.0,-0.0,1.0));
#433=VECTOR('',#432,0.75);
#434=LINE('',#431,#433);
#435=EDGE_CURVE('',#341,#92,#434,.T.);
#436=ORIENTED_EDGE('',*,*,#435,.F.);
#437=ORIENTED_EDGE('',*,*,#347,.F.);
#438=CARTESIAN_POINT('',(0.902219626,0.727993756,0.75));
#439=DIRECTION('',(0.0,0.0,-1.0));
#440=VECTOR('',#439,0.75);
#441=LINE('',#438,#440);
#442=EDGE_CURVE('',#101,#333,#441,.T.);
#443=ORIENTED_EDGE('',*,*,#442,.F.);
#444=ORIENTED_EDGE('',*,*,#107,.T.);
#445=EDGE_LOOP('',(#436,#437,#443,#444));
#446=FACE_BOUND('',#445,.T.);
#447=ADVANCED_FACE('',(#446),#430,.F.);
#448=CARTESIAN_POINT('',(0.902219626,-1.60325981,0.75));
#449=DIRECTION('',(-1.0,0.0,0.0));
#450=DIRECTION('',(0.0,0.0,1.0));
#451=AXIS2_PLACEMENT_3D('',#448,#449,#450);
#452=PLANE('',#451);
#453=ORIENTED_EDGE('',*,*,#338,.F.);
#454=CARTESIAN_POINT('',(0.902219626,-1.60325981,0.75));
#455=DIRECTION('',(0.0,0.0,-1.0));
#456=VECTOR('',#455,0.75);
#457=LINE('',#454,#456);
#458=EDGE_CURVE('',#110,#324,#457,.T.);
#459=ORIENTED_EDGE('',*,*,#458,.F.);
#460=ORIENTED_EDGE('',*,*,#115,.T.);
#461=ORIENTED_EDGE('',*,*,#442,.T.);
#462=EDGE_LOOP('',(#453,#459,#460,#461));
#463=FACE_BOUND('',#462,.T.);
#464=ADVANCED_FACE('',(#463),#452,.T.);
#465=CARTESIAN_POINT('',(0.252219626,3.65673069,0.75));
#466=DIRECTION('',(0.0,0.0,-1.0));
#467=DIRECTION('',(-1.0,0.0,0.0));
#468=AXIS2_PLACEMENT_3D('',#465,#466,#467);
#469=CYLINDRICAL_SURFACE('',#468,5.3);
#470=ORIENTED_EDGE('',*,*,#330,.T.);
#471=CARTESIAN_POINT('',(2.59706811,-1.09634049,0.75));
#472=DIRECTION('',(0.0,0.0,-1.0));
#473=VECTOR('',#472,0.75);
#474=LINE('',#471,#473);
#475=EDGE_CURVE('',#118,#315,#474,.T.);
#476=ORIENTED_EDGE('',*,*,#475,.F.);
#477=ORIENTED_EDGE('',*,*,#124,.F.);
#478=ORIENTED_EDGE('',*,*,#458,.T.);
#479=EDGE_LOOP('',(#470,#476,#477,#478));
#480=FACE_BOUND('',#479,.T.);
#481=ADVANCED_FACE('',(#480),#469,.T.);
#482=CARTESIAN_POINT('',(2.07721963,-0.0425935771,0.75));
#483=DIRECTION('',(0.0,0.0,-1.0));
#484=DIRECTION('',(-1.0,0.0,0.0));
#485=AXIS2_PLACEMENT_3D('',#482,#483,#484);
#486=CYLINDRICAL_SURFACE('',#485,1.175);
#487=ORIENTED_EDGE('',*,*,#321,.T.);
#488=CARTESIAN_POINT('',(3.25221963,-0.0425935771,0.75));
#489=DIRECTION('',(0.0,0.0,-1.0));
#490=VECTOR('',#489,0.75);
#491=LINE('',#488,#490);
#492=EDGE_CURVE('',#127,#307,#491,.T.);
#493=ORIENTED_EDGE('',*,*,#492,.F.);
#494=ORIENTED_EDGE('',*,*,#133,.F.);
#495=ORIENTED_EDGE('',*,*,#475,.T.);
#496=EDGE_LOOP('',(#487,#493,#494,#495));
#497=FACE_BOUND('',#496,.T.);
#498=ADVANCED_FACE('',(#497),#486,.T.);
#499=CARTESIAN_POINT('',(3.25221963,-0.0425935771,0.75));
#500=DIRECTION('',(-1.0,-4.6833518E-012,0.0));
#501=DIRECTION('',(4.6833518E-012,-1.0,0.0));
#502=AXIS2_PLACEMENT_3D('',#499,#500,#501);
#503=PLANE('',#502);
#504=ORIENTED_EDGE('',*,*,#312,.T.);
#505=CARTESIAN_POINT('',(3.25221963,0.855261182,0.75));
#506=DIRECTION('',(0.0,0.0,-1.0));
#507=VECTOR('',#506,0.75);
#508=LINE('',#505,#507);
#509=EDGE_CURVE('',#136,#298,#508,.T.);
#510=ORIENTED_EDGE('',*,*,#509,.F.);
#511=ORIENTED_EDGE('',*,*,#141,.F.);
#512=ORIENTED_EDGE('',*,*,#492,.T.);
#513=EDGE_LOOP('',(#504,#510,#511,#512));
#514=FACE_BOUND('',#513,.T.);
#515=ADVANCED_FACE('',(#514),#503,.F.);
#516=CARTESIAN_POINT('',(3.67721963,0.855261182,0.75));
#517=DIRECTION('',(0.0,0.0,-1.0));
#518=DIRECTION('',(-1.0,0.0,0.0));
#519=AXIS2_PLACEMENT_3D('',#516,#517,#518);
#520=CYLINDRICAL_SURFACE('',#519,0.425);
#521=ORIENTED_EDGE('',*,*,#304,.T.);
#522=CARTESIAN_POINT('',(3.34824997,1.12434103,0.75));
#523=DIRECTION('',(0.0,0.0,-1.0));
#524=VECTOR('',#523,0.75);
#525=LINE('',#522,#524);
#526=EDGE_CURVE('',#144,#289,#525,.T.);
#527=ORIENTED_EDGE('',*,*,#526,.F.);
#528=ORIENTED_EDGE('',*,*,#150,.F.);
#529=ORIENTED_EDGE('',*,*,#509,.T.);
#530=EDGE_LOOP('',(#521,#527,#528,#529));
#531=FACE_BOUND('',#530,.T.);
#532=ADVANCED_FACE('',(#531),#520,.F.);
#533=CARTESIAN_POINT('',(0.252219626,3.65673069,0.75));
#534=DIRECTION('',(0.0,0.0,-1.0));
#535=DIRECTION('',(-1.0,0.0,0.0));
#536=AXIS2_PLACEMENT_3D('',#533,#534,#535);
#537=CYLINDRICAL_SURFACE('',#536,3.99980015);
#538=CARTESIAN_POINT('',(-3.74758053,3.65673069,0.0));
#539=DIRECTION('',(-0.0,-0.0,1.0));
#540=VECTOR('',#539,0.75);
#541=LINE('',#538,#540);
#542=EDGE_CURVE('',#280,#153,#541,.T.);
#543=ORIENTED_EDGE('',*,*,#542,.T.);
#544=ORIENTED_EDGE('',*,*,#159,.F.);
#545=ORIENTED_EDGE('',*,*,#526,.T.);
#546=ORIENTED_EDGE('',*,*,#295,.T.);
#547=EDGE_LOOP('',(#543,#544,#545,#546));
#548=FACE_BOUND('',#547,.T.);
#549=ADVANCED_FACE('',(#548),#537,.T.);
#550=CARTESIAN_POINT('',(-3.17278037,0.855261182,0.75));
#551=DIRECTION('',(0.0,0.0,-1.0));
#552=DIRECTION('',(-1.0,0.0,0.0));
#553=AXIS2_PLACEMENT_3D('',#550,#551,#552);
#554=CYLINDRICAL_SURFACE('',#553,0.425);
#555=ORIENTED_EDGE('',*,*,#277,.F.);
#556=CARTESIAN_POINT('',(-2.74778037,0.855261182,0.75));
#557=DIRECTION('',(0.0,0.0,-1.0));
#558=VECTOR('',#557,0.75);
#559=LINE('',#556,#558);
#560=EDGE_CURVE('',#171,#263,#559,.T.);
#561=ORIENTED_EDGE('',*,*,#560,.F.);
#562=ORIENTED_EDGE('',*,*,#177,.T.);
#563=CARTESIAN_POINT('',(-2.84381071,1.12434103,0.75));
#564=DIRECTION('',(0.0,0.0,-1.0));
#565=VECTOR('',#564,0.75);
#566=LINE('',#563,#565);
#567=EDGE_CURVE('',#162,#271,#566,.T.);
#568=ORIENTED_EDGE('',*,*,#567,.T.);
#569=EDGE_LOOP('',(#555,#561,#562,#568));
#570=FACE_BOUND('',#569,.T.);
#571=ADVANCED_FACE('',(#570),#554,.F.);
#572=CARTESIAN_POINT('',(-2.74778037,-0.0425935771,0.75));
#573=DIRECTION('',(-1.0,4.6756235E-012,0.0));
#574=DIRECTION('',(-4.6756235E-012,-1.0,0.0));
#575=AXIS2_PLACEMENT_3D('',#572,#573,#574);
#576=PLANE('',#575);
#577=ORIENTED_EDGE('',*,*,#268,.F.);
#578=CARTESIAN_POINT('',(-2.74778037,-0.0425935771,0.75));
#579=DIRECTION('',(0.0,0.0,-1.0));
#580=VECTOR('',#579,0.75);
#581=LINE('',#578,#580);
#582=EDGE_CURVE('',#180,#254,#581,.T.);
#583=ORIENTED_EDGE('',*,*,#582,.F.);
#584=ORIENTED_EDGE('',*,*,#185,.T.);
#585=ORIENTED_EDGE('',*,*,#560,.T.);
#586=EDGE_LOOP('',(#577,#583,#584,#585));
#587=FACE_BOUND('',#586,.T.);
#588=ADVANCED_FACE('',(#587),#576,.T.);
#589=CARTESIAN_POINT('',(-1.57278037,-0.0425935771,0.75));
#590=DIRECTION('',(0.0,0.0,-1.0));
#591=DIRECTION('',(-1.0,0.0,0.0));
#592=AXIS2_PLACEMENT_3D('',#589,#590,#591);
#593=CYLINDRICAL_SURFACE('',#592,1.175);
#594=ORIENTED_EDGE('',*,*,#260,.T.);
#595=ORIENTED_EDGE('',*,*,#404,.F.);
#596=ORIENTED_EDGE('',*,*,#192,.F.);
#597=ORIENTED_EDGE('',*,*,#582,.T.);
#598=EDGE_LOOP('',(#594,#595,#596,#597));
#599=FACE_BOUND('',#598,.T.);
#600=ADVANCED_FACE('',(#599),#593,.T.);
#601=CARTESIAN_POINT('',(-1.57278037,-0.0425935771,0.75));
#602=DIRECTION('',(0.0,0.0,-1.0));
#603=DIRECTION('',(-1.0,0.0,0.0));
#604=AXIS2_PLACEMENT_3D('',#601,#602,#603);
#605=CYLINDRICAL_SURFACE('',#604,0.75);
#606=CARTESIAN_POINT('',(-2.32278037,-0.0425935771,0.0));
#607=DIRECTION('',(-0.0,-0.0,1.0));
#608=VECTOR('',#607,0.75);
#609=LINE('',#606,#608);
#610=EDGE_CURVE('',#225,#53,#609,.T.);
#611=ORIENTED_EDGE('',*,*,#610,.F.);
#612=ORIENTED_EDGE('',*,*,#231,.F.);
#613=ORIENTED_EDGE('',*,*,#238,.F.);
#614=ORIENTED_EDGE('',*,*,#610,.T.);
#615=ORIENTED_EDGE('',*,*,#61,.T.);
#616=ORIENTED_EDGE('',*,*,#68,.T.);
#617=EDGE_LOOP('',(#611,#612,#613,#614,#615,#616));
#618=FACE_BOUND('',#617,.T.);
#619=ADVANCED_FACE('',(#618),#605,.F.);
#620=CARTESIAN_POINT('',(2.07721963,-0.0425935771,0.75));
#621=DIRECTION('',(0.0,0.0,-1.0));
#622=DIRECTION('',(-1.0,0.0,0.0));
#623=AXIS2_PLACEMENT_3D('',#620,#621,#622);
#624=CYLINDRICAL_SURFACE('',#623,0.75);
#625=CARTESIAN_POINT('',(1.32721963,-0.0425935771,0.0));
#626=DIRECTION('',(-0.0,-0.0,1.0));
#627=VECTOR('',#626,0.75);
#628=LINE('',#625,#627);
#629=EDGE_CURVE('',#369,#197,#628,.T.);
#630=ORIENTED_EDGE('',*,*,#629,.F.);
#631=ORIENTED_EDGE('',*,*,#375,.F.);
#632=ORIENTED_EDGE('',*,*,#382,.F.);
#633=ORIENTED_EDGE('',*,*,#629,.T.);
#634=ORIENTED_EDGE('',*,*,#205,.T.);
#635=ORIENTED_EDGE('',*,*,#212,.T.);
#636=EDGE_LOOP('',(#630,#631,#632,#633,#634,#635));
#637=FACE_BOUND('',#636,.T.);
#638=ADVANCED_FACE('',(#637),#624,.F.);
#639=CARTESIAN_POINT('',(0.252219626,3.65673069,0.75));
#640=DIRECTION('',(0.0,0.0,-1.0));
#641=DIRECTION('',(-1.0,0.0,0.0));
#642=AXIS2_PLACEMENT_3D('',#639,#640,#641);
#643=CYLINDRICAL_SURFACE('',#642,3.0);
#644=ORIENTED_EDGE('',*,*,#435,.T.);
#645=ORIENTED_EDGE('',*,*,#98,.T.);
#646=ORIENTED_EDGE('',*,*,#419,.T.);
#647=ORIENTED_EDGE('',*,*,#356,.F.);
#648=EDGE_LOOP('',(#644,#645,#646,#647));
#649=FACE_BOUND('',#648,.T.);
#650=ADVANCED_FACE('',(#649),#643,.F.);
#651=CARTESIAN_POINT('',(0.252219626,3.65673069,0.75));
#652=DIRECTION('',(0.0,0.0,-1.0));
#653=DIRECTION('',(-1.0,0.0,0.0));
#654=AXIS2_PLACEMENT_3D('',#651,#652,#653);
#655=CYLINDRICAL_SURFACE('',#654,3.99980015);
#656=ORIENTED_EDGE('',*,*,#542,.F.);
#657=ORIENTED_EDGE('',*,*,#286,.T.);
#658=ORIENTED_EDGE('',*,*,#567,.F.);
#659=ORIENTED_EDGE('',*,*,#168,.F.);
#660=EDGE_LOOP('',(#656,#657,#658,#659));
#661=FACE_BOUND('',#660,.T.);
#662=ADVANCED_FACE('',(#661),#655,.T.);
#663=CLOSED_SHELL('',(#216,#386,#408,#425,#447,#464,#481,#498,#515,#532,#549,#571,#588,#600,#619,#638,#650,#662));
#664=MANIFOLD_SOLID_BREP('',#663);
#665=COLOUR_RGB('',0.752941191,0.752941191,0.752941191);
#666=FILL_AREA_STYLE_COLOUR('',#665);
#667=FILL_AREA_STYLE('',(#666));
#668=SURFACE_STYLE_FILL_AREA(#667);
#669=SURFACE_SIDE_STYLE('',(#668));
#670=SURFACE_STYLE_USAGE(.BOTH.,#669);
#671=PRESENTATION_STYLE_ASSIGNMENT((#670));
#46=STYLED_ITEM('',(#671),#664);
#33=SHAPE_REPRESENTATION('D\S\ifaut',(#32),#27);
#672=ADVANCED_BREP_SHAPE_REPRESENTATION('D\S\ifaut',(#664),#27);
#673=SHAPE_REPRESENTATION_RELATIONSHIP('','',#33,#672);
#674=APPLICATION_CONTEXT('data for automotive mechanical design processes');
#675=APPLICATION_PROTOCOL_DEFINITION('international standard','automotive_design',1994,#674);
#676=PRODUCT_CONTEXT('',#674,'mechanical');
#677=PRODUCT_DEFINITION_CONTEXT('part definition',#674,'design');
#35=PRODUCT('D\S\ifaut','D\S\ifaut','',(#676));
#678=PRODUCT_RELATED_PRODUCT_CATEGORY('part','',(#35));
#679=PRODUCT_DEFINITION_FORMATION_WITH_SPECIFIED_SOURCE('','',#35,.NOT_KNOWN.);
#36=PRODUCT_DEFINITION('design','',#679,#677);
#34=PRODUCT_DEFINITION_SHAPE('','',#36);
#680=SHAPE_DEFINITION_REPRESENTATION(#34,#33);
#28=DRAUGHTING_MODEL('',(),#27);
#16=SHAPE_REPRESENTATION('Anneau elastique',(#15,#40),#10);
#18=PRODUCT('Anneau elastique','Anneau elastique','',(#676));
#681=PRODUCT_RELATED_PRODUCT_CATEGORY('part','',(#18));
#682=PRODUCT_DEFINITION_FORMATION_WITH_SPECIFIED_SOURCE('','',#18,.NOT_KNOWN.);
#19=PRODUCT_DEFINITION('design','',#682,#677);
#17=PRODUCT_DEFINITION_SHAPE('','',#19);
#683=SHAPE_DEFINITION_REPRESENTATION(#17,#16);
#11=DRAUGHTING_MODEL('',(),#10);
#1=MECHANICAL_DESIGN_GEOMETRIC_PRESENTATION_REPRESENTATION('',(#46),#10);
ENDSEC;
END-ISO-10303-21;
