ISO-10303-21;
HEADER;

/* File generated by HOOPS Exchange Version 10.0.20 */

FILE_DESCRIPTION(('HOOPS Exchange Step'),'2;1');

FILE_NAME('c:\\tempstorage\\2191484080452334\\Anneau elastique du bouchon.step',
'2018-12-28T16:46:15+00:00',
('SYSTEM'),
('Unknown organisation'),
'HOOPS Exchange 10.0',
'HOOPS Exchange',
'Unknown authorisation');

FILE_SCHEMA( ('AUTOMOTIVE_DESIGN { 1 0 10303 214 1 1 1 1 }') );

ENDSEC;

DATA;
#3=(NAMED_UNIT(*)PLANE_ANGLE_UNIT()SI_UNIT($,.RADIAN.));
#4=PLANE_ANGLE_MEASURE_WITH_UNIT(PLANE_ANGLE_MEASURE(0.0174532925),#3);
#5=(CONVERSION_BASED_UNIT('DEGREE',#4)NAMED_UNIT(#6)PLANE_ANGLE_UNIT());
#6=DIMENSIONAL_EXPONENTS(0.,0.,0.,0.,0.,0.,0.);
#7=(NAMED_UNIT(*)SI_UNIT($,.STERADIAN.)SOLID_ANGLE_UNIT());
#8=(LENGTH_UNIT()NAMED_UNIT(*)SI_UNIT(.MILLI.,.METRE.));
#9=UNCERTAINTY_MEASURE_WITH_UNIT(LENGTH_MEASURE(1.000000E-005),#8,'DISTANCE_ACCURACY_VALUE','Maximum Tolerance applied to model');
#10=(GEOMETRIC_REPRESENTATION_CONTEXT(3)GLOBAL_UNCERTAINTY_ASSIGNED_CONTEXT((#9))GLOBAL_UNIT_ASSIGNED_CONTEXT((#8,#5,#7))REPRESENTATION_CONTEXT('','Anneau elastique du bouchon'));
#12=CARTESIAN_POINT('',(0.0,0.0,0.0));
#13=DIRECTION('',(0.0,0.0,1.0));
#14=DIRECTION('',(1.0,0.0,0.0));
#15=AXIS2_PLACEMENT_3D('',#12,#13,#14);
#20=(NAMED_UNIT(*)PLANE_ANGLE_UNIT()SI_UNIT($,.RADIAN.));
#21=PLANE_ANGLE_MEASURE_WITH_UNIT(PLANE_ANGLE_MEASURE(0.0174532925),#20);
#22=(CONVERSION_BASED_UNIT('DEGREE',#21)NAMED_UNIT(#23)PLANE_ANGLE_UNIT());
#23=DIMENSIONAL_EXPONENTS(0.,0.,0.,0.,0.,0.,0.);
#24=(NAMED_UNIT(*)SI_UNIT($,.STERADIAN.)SOLID_ANGLE_UNIT());
#25=(LENGTH_UNIT()NAMED_UNIT(*)SI_UNIT(.MILLI.,.METRE.));
#26=UNCERTAINTY_MEASURE_WITH_UNIT(LENGTH_MEASURE(1.000000E-005),#25,'DISTANCE_ACCURACY_VALUE','Maximum Tolerance applied to model');
#27=(GEOMETRIC_REPRESENTATION_CONTEXT(3)GLOBAL_UNCERTAINTY_ASSIGNED_CONTEXT((#26))GLOBAL_UNIT_ASSIGNED_CONTEXT((#25,#22,#24))REPRESENTATION_CONTEXT('','D\S\ifaut'));
#29=CARTESIAN_POINT('',(0.0,0.0,0.0));
#30=DIRECTION('',(0.0,0.0,1.0));
#31=DIRECTION('',(1.0,0.0,0.0));
#32=AXIS2_PLACEMENT_3D('',#29,#30,#31);
#37=CARTESIAN_POINT('',(0.0,0.0,0.0));
#38=DIRECTION('',(0.0,0.0,1.0));
#39=DIRECTION('',(1.0,0.0,0.0));
#40=AXIS2_PLACEMENT_3D('',#37,#38,#39);
#41=ITEM_DEFINED_TRANSFORMATION('','',#40,#32);
#42=(REPRESENTATION_RELATIONSHIP('','',#33,#16)REPRESENTATION_RELATIONSHIP_WITH_TRANSFORMATION(#41)SHAPE_REPRESENTATION_RELATIONSHIP());
#43=NEXT_ASSEMBLY_USAGE_OCCURRENCE('D\S\ifaut_1','D\S\ifaut','D\S\ifaut',#19,#36,$);
#44=PRODUCT_DEFINITION_SHAPE('','',#43);
#45=CONTEXT_DEPENDENT_SHAPE_REPRESENTATION(#42,#44);
#47=CARTESIAN_POINT('',(-4.4803338,-9.60810684,1.0));
#48=DIRECTION('',(0.0,0.0,1.0));
#49=DIRECTION('',(1.0,0.0,-0.0));
#50=AXIS2_PLACEMENT_3D('',#47,#48,#49);
#51=PLANE('',#50);
#52=CARTESIAN_POINT('',(3.86669744,-9.60810684,1.0));
#53=VERTEX_POINT('',#52);
#54=CARTESIAN_POINT('',(4.4803338,-9.60810684,1.0));
#55=DIRECTION('',(0.0,0.0,-1.0));
#56=DIRECTION('',(-1.0,0.0,0.0));
#57=AXIS2_PLACEMENT_3D('',#54,#55,#56);
#58=CIRCLE('',#57,0.613636364);
#59=EDGE_CURVE('',#53,#53,#58,.T.);
#60=ORIENTED_EDGE('',*,*,#59,.T.);
#61=EDGE_LOOP('',(#60));
#62=FACE_BOUND('',#61,.T.);
#63=CARTESIAN_POINT('',(-2.70215217,-10.0845692,1.0));
#64=VERTEX_POINT('',#63);
#65=CARTESIAN_POINT('',(-6.02694019,-8.60963052,1.0));
#66=VERTEX_POINT('',#65);
#67=CARTESIAN_POINT('',(-4.4803338,-9.60810684,1.0));
#68=DIRECTION('',(0.0,0.0,1.0));
#69=DIRECTION('',(1.0,0.0,-0.0));
#70=AXIS2_PLACEMENT_3D('',#67,#68,#69);
#71=CIRCLE('',#70,1.84090909);
#72=EDGE_CURVE('',#64,#66,#71,.T.);
#73=ORIENTED_EDGE('',*,*,#72,.T.);
#74=CARTESIAN_POINT('',(-7.42341968,-8.792567,1.0));
#75=VERTEX_POINT('',#74);
#76=CARTESIAN_POINT('',(-6.80277564,-8.10875756,1.0));
#77=DIRECTION('',(0.0,0.0,1.0));
#78=DIRECTION('',(1.0,0.0,-0.0));
#79=AXIS2_PLACEMENT_3D('',#76,#77,#78);
#80=CIRCLE('',#79,0.923468667);
#81=EDGE_CURVE('',#75,#66,#80,.T.);
#82=ORIENTED_EDGE('',*,*,#81,.F.);
#83=CARTESIAN_POINT('',(-11.0454545,-0.613636364,1.0));
#84=VERTEX_POINT('',#83);
#85=CARTESIAN_POINT('',(-2.1569771E-015,-0.613636364,1.0));
#86=DIRECTION('',(0.0,0.0,1.0));
#87=DIRECTION('',(1.0,0.0,-0.0));
#88=AXIS2_PLACEMENT_3D('',#85,#86,#87);
#89=CIRCLE('',#88,11.0454545);
#90=EDGE_CURVE('',#84,#75,#89,.T.);
#91=ORIENTED_EDGE('',*,*,#90,.F.);
#92=CARTESIAN_POINT('',(7.42341968,-8.792567,1.0));
#93=VERTEX_POINT('',#92);
#94=CARTESIAN_POINT('',(-2.1569771E-015,-0.613636364,1.0));
#95=DIRECTION('',(0.0,0.0,1.0));
#96=DIRECTION('',(1.0,0.0,-0.0));
#97=AXIS2_PLACEMENT_3D('',#94,#95,#96);
#98=CIRCLE('',#97,11.0454545);
#99=EDGE_CURVE('',#93,#84,#98,.T.);
#100=ORIENTED_EDGE('',*,*,#99,.F.);
#101=CARTESIAN_POINT('',(6.02694019,-8.60963052,1.0));
#102=VERTEX_POINT('',#101);
#103=CARTESIAN_POINT('',(6.80277564,-8.10875756,1.0));
#104=DIRECTION('',(0.0,0.0,-1.0));
#105=DIRECTION('',(-1.0,0.0,0.0));
#106=AXIS2_PLACEMENT_3D('',#103,#104,#105);
#107=CIRCLE('',#106,0.923468667);
#108=EDGE_CURVE('',#93,#102,#107,.T.);
#109=ORIENTED_EDGE('',*,*,#108,.T.);
#110=CARTESIAN_POINT('',(2.63942471,-9.60810684,1.0));
#111=VERTEX_POINT('',#110);
#112=CARTESIAN_POINT('',(4.4803338,-9.60810684,1.0));
#113=DIRECTION('',(0.0,0.0,-1.0));
#114=DIRECTION('',(-1.0,0.0,0.0));
#115=AXIS2_PLACEMENT_3D('',#112,#113,#114);
#116=CIRCLE('',#115,1.84090909);
#117=EDGE_CURVE('',#111,#102,#116,.T.);
#118=ORIENTED_EDGE('',*,*,#117,.F.);
#119=CARTESIAN_POINT('',(2.70215217,-10.0845692,1.0));
#120=VERTEX_POINT('',#119);
#121=CARTESIAN_POINT('',(4.4803338,-9.60810684,1.0));
#122=DIRECTION('',(0.0,0.0,-1.0));
#123=DIRECTION('',(-1.0,0.0,0.0));
#124=AXIS2_PLACEMENT_3D('',#121,#122,#123);
#125=CIRCLE('',#124,1.84090909);
#126=EDGE_CURVE('',#120,#111,#125,.T.);
#127=ORIENTED_EDGE('',*,*,#126,.F.);
#128=CARTESIAN_POINT('',(3.49405711,-13.0399987,1.0));
#129=VERTEX_POINT('',#128);
#130=CARTESIAN_POINT('',(3.49405711,-13.0399987,1.0));
#131=DIRECTION('',(-0.258819045,0.965925826,0.0));
#132=VECTOR('',#131,3.05968574);
#133=LINE('',#130,#132);
#134=EDGE_CURVE('',#129,#120,#133,.T.);
#135=ORIENTED_EDGE('',*,*,#134,.F.);
#136=CARTESIAN_POINT('',(-13.5,1.65327318E-015,1.0));
#137=VERTEX_POINT('',#136);
#138=CARTESIAN_POINT('',(0.0,0.0,1.0));
#139=DIRECTION('',(0.0,0.0,1.0));
#140=DIRECTION('',(1.0,0.0,-0.0));
#141=AXIS2_PLACEMENT_3D('',#138,#139,#140);
#142=CIRCLE('',#141,13.5);
#143=EDGE_CURVE('',#129,#137,#142,.T.);
#144=ORIENTED_EDGE('',*,*,#143,.T.);
#145=CARTESIAN_POINT('',(-3.49405711,-13.0399987,1.0));
#146=VERTEX_POINT('',#145);
#147=CARTESIAN_POINT('',(0.0,0.0,1.0));
#148=DIRECTION('',(0.0,0.0,1.0));
#149=DIRECTION('',(1.0,0.0,-0.0));
#150=AXIS2_PLACEMENT_3D('',#147,#148,#149);
#151=CIRCLE('',#150,13.5);
#152=EDGE_CURVE('',#137,#146,#151,.T.);
#153=ORIENTED_EDGE('',*,*,#152,.T.);
#154=CARTESIAN_POINT('',(-3.49405711,-13.0399987,1.0));
#155=DIRECTION('',(0.258819045,0.965925826,0.0));
#156=VECTOR('',#155,3.05968574);
#157=LINE('',#154,#156);
#158=EDGE_CURVE('',#146,#64,#157,.T.);
#159=ORIENTED_EDGE('',*,*,#158,.T.);
#160=EDGE_LOOP('',(#73,#82,#91,#100,#109,#118,#127,#135,#144,#153,#159));
#161=FACE_BOUND('',#160,.T.);
#162=CARTESIAN_POINT('',(-5.09397017,-9.60810684,1.0));
#163=VERTEX_POINT('',#162);
#164=CARTESIAN_POINT('',(-3.86669744,-9.60810684,1.0));
#165=VERTEX_POINT('',#164);
#166=CARTESIAN_POINT('',(-4.4803338,-9.60810684,1.0));
#167=DIRECTION('',(0.0,0.0,1.0));
#168=DIRECTION('',(1.0,0.0,-0.0));
#169=AXIS2_PLACEMENT_3D('',#166,#167,#168);
#170=CIRCLE('',#169,0.613636364);
#171=EDGE_CURVE('',#163,#165,#170,.T.);
#172=ORIENTED_EDGE('',*,*,#171,.F.);
#173=CARTESIAN_POINT('',(-4.4803338,-9.60810684,1.0));
#174=DIRECTION('',(0.0,0.0,1.0));
#175=DIRECTION('',(1.0,0.0,-0.0));
#176=AXIS2_PLACEMENT_3D('',#173,#174,#175);
#177=CIRCLE('',#176,0.613636364);
#178=EDGE_CURVE('',#165,#163,#177,.T.);
#179=ORIENTED_EDGE('',*,*,#178,.F.);
#180=EDGE_LOOP('',(#172,#179));
#181=FACE_BOUND('',#180,.T.);
#182=ADVANCED_FACE('',(#62,#161,#181),#51,.T.);
#183=CARTESIAN_POINT('',(-4.4803338,-9.60810684,0.0));
#184=DIRECTION('',(0.0,0.0,1.0));
#185=DIRECTION('',(1.0,0.0,-0.0));
#186=AXIS2_PLACEMENT_3D('',#183,#184,#185);
#187=PLANE('',#186);
#188=CARTESIAN_POINT('',(3.86669744,-9.60810684,0.0));
#189=VERTEX_POINT('',#188);
#190=CARTESIAN_POINT('',(4.4803338,-9.60810684,0.0));
#191=DIRECTION('',(0.0,0.0,-1.0));
#192=DIRECTION('',(-1.0,0.0,0.0));
#193=AXIS2_PLACEMENT_3D('',#190,#191,#192);
#194=CIRCLE('',#193,0.613636364);
#195=EDGE_CURVE('',#189,#189,#194,.T.);
#196=ORIENTED_EDGE('',*,*,#195,.F.);
#197=EDGE_LOOP('',(#196));
#198=FACE_BOUND('',#197,.T.);
#199=CARTESIAN_POINT('',(-2.70215217,-10.0845692,0.0));
#200=VERTEX_POINT('',#199);
#201=CARTESIAN_POINT('',(-6.02694019,-8.60963052,0.0));
#202=VERTEX_POINT('',#201);
#203=CARTESIAN_POINT('',(-4.4803338,-9.60810684,0.0));
#204=DIRECTION('',(0.0,0.0,1.0));
#205=DIRECTION('',(1.0,0.0,-0.0));
#206=AXIS2_PLACEMENT_3D('',#203,#204,#205);
#207=CIRCLE('',#206,1.84090909);
#208=EDGE_CURVE('',#200,#202,#207,.T.);
#209=ORIENTED_EDGE('',*,*,#208,.F.);
#210=CARTESIAN_POINT('',(-3.49405711,-13.0399987,0.0));
#211=VERTEX_POINT('',#210);
#212=CARTESIAN_POINT('',(-3.49405711,-13.0399987,0.0));
#213=DIRECTION('',(0.258819045,0.965925826,0.0));
#214=VECTOR('',#213,3.05968574);
#215=LINE('',#212,#214);
#216=EDGE_CURVE('',#211,#200,#215,.T.);
#217=ORIENTED_EDGE('',*,*,#216,.F.);
#218=CARTESIAN_POINT('',(-13.5,1.65327318E-015,0.0));
#219=VERTEX_POINT('',#218);
#220=CARTESIAN_POINT('',(0.0,0.0,0.0));
#221=DIRECTION('',(0.0,0.0,1.0));
#222=DIRECTION('',(1.0,0.0,0.0));
#223=AXIS2_PLACEMENT_3D('',#220,#221,#222);
#224=CIRCLE('',#223,13.5);
#225=EDGE_CURVE('',#219,#211,#224,.T.);
#226=ORIENTED_EDGE('',*,*,#225,.F.);
#227=CARTESIAN_POINT('',(3.49405711,-13.0399987,0.0));
#228=VERTEX_POINT('',#227);
#229=CARTESIAN_POINT('',(0.0,0.0,0.0));
#230=DIRECTION('',(0.0,0.0,1.0));
#231=DIRECTION('',(1.0,0.0,0.0));
#232=AXIS2_PLACEMENT_3D('',#229,#230,#231);
#233=CIRCLE('',#232,13.5);
#234=EDGE_CURVE('',#228,#219,#233,.T.);
#235=ORIENTED_EDGE('',*,*,#234,.F.);
#236=CARTESIAN_POINT('',(2.70215217,-10.0845692,0.0));
#237=VERTEX_POINT('',#236);
#238=CARTESIAN_POINT('',(3.49405711,-13.0399987,0.0));
#239=DIRECTION('',(-0.258819045,0.965925826,0.0));
#240=VECTOR('',#239,3.05968574);
#241=LINE('',#238,#240);
#242=EDGE_CURVE('',#228,#237,#241,.T.);
#243=ORIENTED_EDGE('',*,*,#242,.T.);
#244=CARTESIAN_POINT('',(2.63942471,-9.60810684,0.0));
#245=VERTEX_POINT('',#244);
#246=CARTESIAN_POINT('',(4.4803338,-9.60810684,0.0));
#247=DIRECTION('',(0.0,0.0,-1.0));
#248=DIRECTION('',(-1.0,0.0,0.0));
#249=AXIS2_PLACEMENT_3D('',#246,#247,#248);
#250=CIRCLE('',#249,1.84090909);
#251=EDGE_CURVE('',#237,#245,#250,.T.);
#252=ORIENTED_EDGE('',*,*,#251,.T.);
#253=CARTESIAN_POINT('',(6.02694019,-8.60963052,0.0));
#254=VERTEX_POINT('',#253);
#255=CARTESIAN_POINT('',(4.4803338,-9.60810684,0.0));
#256=DIRECTION('',(0.0,0.0,-1.0));
#257=DIRECTION('',(-1.0,0.0,0.0));
#258=AXIS2_PLACEMENT_3D('',#255,#256,#257);
#259=CIRCLE('',#258,1.84090909);
#260=EDGE_CURVE('',#245,#254,#259,.T.);
#261=ORIENTED_EDGE('',*,*,#260,.T.);
#262=CARTESIAN_POINT('',(7.42341968,-8.792567,0.0));
#263=VERTEX_POINT('',#262);
#264=CARTESIAN_POINT('',(6.80277564,-8.10875756,0.0));
#265=DIRECTION('',(0.0,0.0,-1.0));
#266=DIRECTION('',(-1.0,0.0,0.0));
#267=AXIS2_PLACEMENT_3D('',#264,#265,#266);
#268=CIRCLE('',#267,0.923468667);
#269=EDGE_CURVE('',#263,#254,#268,.T.);
#270=ORIENTED_EDGE('',*,*,#269,.F.);
#271=CARTESIAN_POINT('',(-11.0454545,-0.613636364,0.0));
#272=VERTEX_POINT('',#271);
#273=CARTESIAN_POINT('',(-2.1569771E-015,-0.613636364,0.0));
#274=DIRECTION('',(0.0,0.0,1.0));
#275=DIRECTION('',(1.0,0.0,-0.0));
#276=AXIS2_PLACEMENT_3D('',#273,#274,#275);
#277=CIRCLE('',#276,11.0454545);
#278=EDGE_CURVE('',#263,#272,#277,.T.);
#279=ORIENTED_EDGE('',*,*,#278,.T.);
#280=CARTESIAN_POINT('',(-7.42341968,-8.792567,0.0));
#281=VERTEX_POINT('',#280);
#282=CARTESIAN_POINT('',(-2.1569771E-015,-0.613636364,0.0));
#283=DIRECTION('',(0.0,0.0,1.0));
#284=DIRECTION('',(1.0,0.0,-0.0));
#285=AXIS2_PLACEMENT_3D('',#282,#283,#284);
#286=CIRCLE('',#285,11.0454545);
#287=EDGE_CURVE('',#272,#281,#286,.T.);
#288=ORIENTED_EDGE('',*,*,#287,.T.);
#289=CARTESIAN_POINT('',(-6.80277564,-8.10875756,0.0));
#290=DIRECTION('',(0.0,0.0,1.0));
#291=DIRECTION('',(1.0,0.0,-0.0));
#292=AXIS2_PLACEMENT_3D('',#289,#290,#291);
#293=CIRCLE('',#292,0.923468667);
#294=EDGE_CURVE('',#281,#202,#293,.T.);
#295=ORIENTED_EDGE('',*,*,#294,.T.);
#296=EDGE_LOOP('',(#209,#217,#226,#235,#243,#252,#261,#270,#279,#288,#295));
#297=FACE_BOUND('',#296,.T.);
#298=CARTESIAN_POINT('',(-3.86669744,-9.60810684,0.0));
#299=VERTEX_POINT('',#298);
#300=CARTESIAN_POINT('',(-5.09397017,-9.60810684,0.0));
#301=VERTEX_POINT('',#300);
#302=CARTESIAN_POINT('',(-4.4803338,-9.60810684,0.0));
#303=DIRECTION('',(0.0,0.0,1.0));
#304=DIRECTION('',(1.0,0.0,-0.0));
#305=AXIS2_PLACEMENT_3D('',#302,#303,#304);
#306=CIRCLE('',#305,0.613636364);
#307=EDGE_CURVE('',#299,#301,#306,.T.);
#308=ORIENTED_EDGE('',*,*,#307,.T.);
#309=CARTESIAN_POINT('',(-4.4803338,-9.60810684,0.0));
#310=DIRECTION('',(0.0,0.0,1.0));
#311=DIRECTION('',(1.0,0.0,-0.0));
#312=AXIS2_PLACEMENT_3D('',#309,#310,#311);
#313=CIRCLE('',#312,0.613636364);
#314=EDGE_CURVE('',#301,#299,#313,.T.);
#315=ORIENTED_EDGE('',*,*,#314,.T.);
#316=EDGE_LOOP('',(#308,#315));
#317=FACE_BOUND('',#316,.T.);
#318=ADVANCED_FACE('',(#198,#297,#317),#187,.F.);
#319=CARTESIAN_POINT('',(-4.4803338,-9.60810684,1.0));
#320=DIRECTION('',(0.0,0.0,-1.0));
#321=DIRECTION('',(-1.0,0.0,0.0));
#322=AXIS2_PLACEMENT_3D('',#319,#320,#321);
#323=CYLINDRICAL_SURFACE('',#322,1.84090909);
#324=ORIENTED_EDGE('',*,*,#208,.T.);
#325=CARTESIAN_POINT('',(-6.02694019,-8.60963052,1.0));
#326=DIRECTION('',(0.0,0.0,-1.0));
#327=VECTOR('',#326,1.0);
#328=LINE('',#325,#327);
#329=EDGE_CURVE('',#66,#202,#328,.T.);
#330=ORIENTED_EDGE('',*,*,#329,.F.);
#331=ORIENTED_EDGE('',*,*,#72,.F.);
#332=CARTESIAN_POINT('',(-2.70215217,-10.0845692,1.0));
#333=DIRECTION('',(0.0,0.0,-1.0));
#334=VECTOR('',#333,1.0);
#335=LINE('',#332,#334);
#336=EDGE_CURVE('',#64,#200,#335,.T.);
#337=ORIENTED_EDGE('',*,*,#336,.T.);
#338=EDGE_LOOP('',(#324,#330,#331,#337));
#339=FACE_BOUND('',#338,.T.);
#340=ADVANCED_FACE('',(#339),#323,.T.);
#341=CARTESIAN_POINT('',(-6.80277564,-8.10875756,1.0));
#342=DIRECTION('',(0.0,0.0,-1.0));
#343=DIRECTION('',(-1.0,0.0,0.0));
#344=AXIS2_PLACEMENT_3D('',#341,#342,#343);
#345=CYLINDRICAL_SURFACE('',#344,0.923468667);
#346=ORIENTED_EDGE('',*,*,#294,.F.);
#347=CARTESIAN_POINT('',(-7.42341968,-8.792567,1.0));
#348=DIRECTION('',(0.0,0.0,-1.0));
#349=VECTOR('',#348,1.0);
#350=LINE('',#347,#349);
#351=EDGE_CURVE('',#75,#281,#350,.T.);
#352=ORIENTED_EDGE('',*,*,#351,.F.);
#353=ORIENTED_EDGE('',*,*,#81,.T.);
#354=ORIENTED_EDGE('',*,*,#329,.T.);
#355=EDGE_LOOP('',(#346,#352,#353,#354));
#356=FACE_BOUND('',#355,.T.);
#357=ADVANCED_FACE('',(#356),#345,.F.);
#358=CARTESIAN_POINT('',(-2.1569771E-015,-0.613636364,1.0));
#359=DIRECTION('',(0.0,0.0,-1.0));
#360=DIRECTION('',(-1.0,0.0,0.0));
#361=AXIS2_PLACEMENT_3D('',#358,#359,#360);
#362=CYLINDRICAL_SURFACE('',#361,11.0454545);
#363=CARTESIAN_POINT('',(-11.0454545,-0.613636364,0.0));
#364=DIRECTION('',(-0.0,-0.0,1.0));
#365=VECTOR('',#364,1.0);
#366=LINE('',#363,#365);
#367=EDGE_CURVE('',#272,#84,#366,.T.);
#368=ORIENTED_EDGE('',*,*,#367,.F.);
#369=ORIENTED_EDGE('',*,*,#278,.F.);
#370=CARTESIAN_POINT('',(7.42341968,-8.792567,1.0));
#371=DIRECTION('',(0.0,0.0,-1.0));
#372=VECTOR('',#371,1.0);
#373=LINE('',#370,#372);
#374=EDGE_CURVE('',#93,#263,#373,.T.);
#375=ORIENTED_EDGE('',*,*,#374,.F.);
#376=ORIENTED_EDGE('',*,*,#99,.T.);
#377=EDGE_LOOP('',(#368,#369,#375,#376));
#378=FACE_BOUND('',#377,.T.);
#379=ADVANCED_FACE('',(#378),#362,.F.);
#380=CARTESIAN_POINT('',(6.80277564,-8.10875756,1.0));
#381=DIRECTION('',(0.0,0.0,-1.0));
#382=DIRECTION('',(-1.0,0.0,0.0));
#383=AXIS2_PLACEMENT_3D('',#380,#381,#382);
#384=CYLINDRICAL_SURFACE('',#383,0.923468667);
#385=ORIENTED_EDGE('',*,*,#269,.T.);
#386=CARTESIAN_POINT('',(6.02694019,-8.60963052,1.0));
#387=DIRECTION('',(0.0,0.0,-1.0));
#388=VECTOR('',#387,1.0);
#389=LINE('',#386,#388);
#390=EDGE_CURVE('',#102,#254,#389,.T.);
#391=ORIENTED_EDGE('',*,*,#390,.F.);
#392=ORIENTED_EDGE('',*,*,#108,.F.);
#393=ORIENTED_EDGE('',*,*,#374,.T.);
#394=EDGE_LOOP('',(#385,#391,#392,#393));
#395=FACE_BOUND('',#394,.T.);
#396=ADVANCED_FACE('',(#395),#384,.F.);
#397=CARTESIAN_POINT('',(4.4803338,-9.60810684,1.0));
#398=DIRECTION('',(0.0,0.0,-1.0));
#399=DIRECTION('',(-1.0,0.0,0.0));
#400=AXIS2_PLACEMENT_3D('',#397,#398,#399);
#401=CYLINDRICAL_SURFACE('',#400,1.84090909);
#402=CARTESIAN_POINT('',(2.63942471,-9.60810684,0.0));
#403=DIRECTION('',(-0.0,-0.0,1.0));
#404=VECTOR('',#403,1.0);
#405=LINE('',#402,#404);
#406=EDGE_CURVE('',#245,#111,#405,.T.);
#407=ORIENTED_EDGE('',*,*,#406,.T.);
#408=ORIENTED_EDGE('',*,*,#117,.T.);
#409=ORIENTED_EDGE('',*,*,#390,.T.);
#410=ORIENTED_EDGE('',*,*,#260,.F.);
#411=EDGE_LOOP('',(#407,#408,#409,#410));
#412=FACE_BOUND('',#411,.T.);
#413=ADVANCED_FACE('',(#412),#401,.T.);
#414=CARTESIAN_POINT('',(3.49405711,-13.0399987,1.0));
#415=DIRECTION('',(-0.965925826,-0.258819045,0.0));
#416=DIRECTION('',(0.258819045,-0.965925826,0.0));
#417=AXIS2_PLACEMENT_3D('',#414,#415,#416);
#418=PLANE('',#417);
#419=ORIENTED_EDGE('',*,*,#242,.F.);
#420=CARTESIAN_POINT('',(3.49405711,-13.0399987,1.0));
#421=DIRECTION('',(0.0,0.0,-1.0));
#422=VECTOR('',#421,1.0);
#423=LINE('',#420,#422);
#424=EDGE_CURVE('',#129,#228,#423,.T.);
#425=ORIENTED_EDGE('',*,*,#424,.F.);
#426=ORIENTED_EDGE('',*,*,#134,.T.);
#427=CARTESIAN_POINT('',(2.70215217,-10.0845692,1.0));
#428=DIRECTION('',(0.0,0.0,-1.0));
#429=VECTOR('',#428,1.0);
#430=LINE('',#427,#429);
#431=EDGE_CURVE('',#120,#237,#430,.T.);
#432=ORIENTED_EDGE('',*,*,#431,.T.);
#433=EDGE_LOOP('',(#419,#425,#426,#432));
#434=FACE_BOUND('',#433,.T.);
#435=ADVANCED_FACE('',(#434),#418,.T.);
#436=CARTESIAN_POINT('',(0.0,0.0,1.0));
#437=DIRECTION('',(0.0,0.0,-1.0));
#438=DIRECTION('',(-1.0,0.0,0.0));
#439=AXIS2_PLACEMENT_3D('',#436,#437,#438);
#440=CYLINDRICAL_SURFACE('',#439,13.5);
#441=CARTESIAN_POINT('',(-13.5,0.0,0.0));
#442=DIRECTION('',(-0.0,-0.0,1.0));
#443=VECTOR('',#442,1.0);
#444=LINE('',#441,#443);
#445=EDGE_CURVE('',#219,#137,#444,.T.);
#446=ORIENTED_EDGE('',*,*,#445,.T.);
#447=ORIENTED_EDGE('',*,*,#143,.F.);
#448=ORIENTED_EDGE('',*,*,#424,.T.);
#449=ORIENTED_EDGE('',*,*,#234,.T.);
#450=EDGE_LOOP('',(#446,#447,#448,#449));
#451=FACE_BOUND('',#450,.T.);
#452=ADVANCED_FACE('',(#451),#440,.T.);
#453=CARTESIAN_POINT('',(-3.49405711,-13.0399987,1.0));
#454=DIRECTION('',(-0.965925826,0.258819045,0.0));
#455=DIRECTION('',(-0.258819045,-0.965925826,0.0));
#456=AXIS2_PLACEMENT_3D('',#453,#454,#455);
#457=PLANE('',#456);
#458=ORIENTED_EDGE('',*,*,#216,.T.);
#459=ORIENTED_EDGE('',*,*,#336,.F.);
#460=ORIENTED_EDGE('',*,*,#158,.F.);
#461=CARTESIAN_POINT('',(-3.49405711,-13.0399987,1.0));
#462=DIRECTION('',(0.0,0.0,-1.0));
#463=VECTOR('',#462,1.0);
#464=LINE('',#461,#463);
#465=EDGE_CURVE('',#146,#211,#464,.T.);
#466=ORIENTED_EDGE('',*,*,#465,.T.);
#467=EDGE_LOOP('',(#458,#459,#460,#466));
#468=FACE_BOUND('',#467,.T.);
#469=ADVANCED_FACE('',(#468),#457,.F.);
#470=CARTESIAN_POINT('',(-4.4803338,-9.60810684,1.0));
#471=DIRECTION('',(0.0,0.0,-1.0));
#472=DIRECTION('',(-1.0,0.0,0.0));
#473=AXIS2_PLACEMENT_3D('',#470,#471,#472);
#474=CYLINDRICAL_SURFACE('',#473,0.613636364);
#475=CARTESIAN_POINT('',(-5.09397017,-9.60810684,0.0));
#476=DIRECTION('',(-0.0,-0.0,1.0));
#477=VECTOR('',#476,1.0);
#478=LINE('',#475,#477);
#479=EDGE_CURVE('',#301,#163,#478,.T.);
#480=ORIENTED_EDGE('',*,*,#479,.F.);
#481=ORIENTED_EDGE('',*,*,#307,.F.);
#482=ORIENTED_EDGE('',*,*,#314,.F.);
#483=ORIENTED_EDGE('',*,*,#479,.T.);
#484=ORIENTED_EDGE('',*,*,#171,.T.);
#485=ORIENTED_EDGE('',*,*,#178,.T.);
#486=EDGE_LOOP('',(#480,#481,#482,#483,#484,#485));
#487=FACE_BOUND('',#486,.T.);
#488=ADVANCED_FACE('',(#487),#474,.F.);
#489=CARTESIAN_POINT('',(4.4803338,-9.60810684,1.0));
#490=DIRECTION('',(0.0,0.0,-1.0));
#491=DIRECTION('',(-1.0,0.0,0.0));
#492=AXIS2_PLACEMENT_3D('',#489,#490,#491);
#493=CYLINDRICAL_SURFACE('',#492,0.613636364);
#494=CARTESIAN_POINT('',(3.86669744,-9.60810684,0.0));
#495=DIRECTION('',(-0.0,-0.0,1.0));
#496=VECTOR('',#495,1.0);
#497=LINE('',#494,#496);
#498=EDGE_CURVE('',#189,#53,#497,.T.);
#499=ORIENTED_EDGE('',*,*,#498,.F.);
#500=ORIENTED_EDGE('',*,*,#195,.T.);
#501=ORIENTED_EDGE('',*,*,#498,.T.);
#502=ORIENTED_EDGE('',*,*,#59,.F.);
#503=EDGE_LOOP('',(#499,#500,#501,#502));
#504=FACE_BOUND('',#503,.T.);
#505=ADVANCED_FACE('',(#504),#493,.F.);
#506=CARTESIAN_POINT('',(-2.1569771E-015,-0.613636364,1.0));
#507=DIRECTION('',(0.0,0.0,-1.0));
#508=DIRECTION('',(-1.0,0.0,0.0));
#509=AXIS2_PLACEMENT_3D('',#506,#507,#508);
#510=CYLINDRICAL_SURFACE('',#509,11.0454545);
#511=ORIENTED_EDGE('',*,*,#367,.T.);
#512=ORIENTED_EDGE('',*,*,#90,.T.);
#513=ORIENTED_EDGE('',*,*,#351,.T.);
#514=ORIENTED_EDGE('',*,*,#287,.F.);
#515=EDGE_LOOP('',(#511,#512,#513,#514));
#516=FACE_BOUND('',#515,.T.);
#517=ADVANCED_FACE('',(#516),#510,.F.);
#518=CARTESIAN_POINT('',(4.4803338,-9.60810684,1.0));
#519=DIRECTION('',(0.0,0.0,-1.0));
#520=DIRECTION('',(-1.0,0.0,0.0));
#521=AXIS2_PLACEMENT_3D('',#518,#519,#520);
#522=CYLINDRICAL_SURFACE('',#521,1.84090909);
#523=ORIENTED_EDGE('',*,*,#406,.F.);
#524=ORIENTED_EDGE('',*,*,#251,.F.);
#525=ORIENTED_EDGE('',*,*,#431,.F.);
#526=ORIENTED_EDGE('',*,*,#126,.T.);
#527=EDGE_LOOP('',(#523,#524,#525,#526));
#528=FACE_BOUND('',#527,.T.);
#529=ADVANCED_FACE('',(#528),#522,.T.);
#530=CARTESIAN_POINT('',(0.0,0.0,1.0));
#531=DIRECTION('',(0.0,0.0,-1.0));
#532=DIRECTION('',(-1.0,0.0,0.0));
#533=AXIS2_PLACEMENT_3D('',#530,#531,#532);
#534=CYLINDRICAL_SURFACE('',#533,13.5);
#535=ORIENTED_EDGE('',*,*,#445,.F.);
#536=ORIENTED_EDGE('',*,*,#225,.T.);
#537=ORIENTED_EDGE('',*,*,#465,.F.);
#538=ORIENTED_EDGE('',*,*,#152,.F.);
#539=EDGE_LOOP('',(#535,#536,#537,#538));
#540=FACE_BOUND('',#539,.T.);
#541=ADVANCED_FACE('',(#540),#534,.T.);
#542=CLOSED_SHELL('',(#182,#318,#340,#357,#379,#396,#413,#435,#452,#469,#488,#505,#517,#529,#541));
#543=MANIFOLD_SOLID_BREP('',#542);
#544=COLOUR_RGB('',0.792156875,0.819607854,0.933333337);
#545=FILL_AREA_STYLE_COLOUR('',#544);
#546=FILL_AREA_STYLE('',(#545));
#547=SURFACE_STYLE_FILL_AREA(#546);
#548=SURFACE_SIDE_STYLE('',(#547));
#549=SURFACE_STYLE_USAGE(.BOTH.,#548);
#550=PRESENTATION_STYLE_ASSIGNMENT((#549));
#46=STYLED_ITEM('',(#550),#543);
#33=SHAPE_REPRESENTATION('D\S\ifaut',(#32),#27);
#551=ADVANCED_BREP_SHAPE_REPRESENTATION('D\S\ifaut',(#543),#27);
#552=SHAPE_REPRESENTATION_RELATIONSHIP('','',#33,#551);
#553=APPLICATION_CONTEXT('data for automotive mechanical design processes');
#554=APPLICATION_PROTOCOL_DEFINITION('international standard','automotive_design',1994,#553);
#555=PRODUCT_CONTEXT('',#553,'mechanical');
#556=PRODUCT_DEFINITION_CONTEXT('part definition',#553,'design');
#35=PRODUCT('D\S\ifaut','D\S\ifaut','',(#555));
#557=PRODUCT_RELATED_PRODUCT_CATEGORY('part','',(#35));
#558=PRODUCT_DEFINITION_FORMATION_WITH_SPECIFIED_SOURCE('','',#35,.NOT_KNOWN.);
#36=PRODUCT_DEFINITION('design','',#558,#556);
#34=PRODUCT_DEFINITION_SHAPE('','',#36);
#559=SHAPE_DEFINITION_REPRESENTATION(#34,#33);
#28=DRAUGHTING_MODEL('',(),#27);
#16=SHAPE_REPRESENTATION('Anneau elastique du bouchon',(#15,#40),#10);
#18=PRODUCT('Anneau elastique du bouchon','Anneau elastique du bouchon','',(#555));
#560=PRODUCT_RELATED_PRODUCT_CATEGORY('part','',(#18));
#561=PRODUCT_DEFINITION_FORMATION_WITH_SPECIFIED_SOURCE('','',#18,.NOT_KNOWN.);
#19=PRODUCT_DEFINITION('design','',#561,#556);
#17=PRODUCT_DEFINITION_SHAPE('','',#19);
#562=SHAPE_DEFINITION_REPRESENTATION(#17,#16);
#11=DRAUGHTING_MODEL('',(),#10);
#1=MECHANICAL_DESIGN_GEOMETRIC_PRESENTATION_REPRESENTATION('',(#46),#10);
ENDSEC;
END-ISO-10303-21;
