ISO-10303-21;
HEADER;

/* File generated by HOOPS Exchange Version 10.0.20 */

FILE_DESCRIPTION(('HOOPS Exchange Step'),'2;1');

FILE_NAME('c:\\tempstorage\\3686205959459295\\Bouchon.step',
'2018-12-28T16:48:22+00:00',
('SYSTEM'),
('Unknown organisation'),
'HOOPS Exchange 10.0',
'HOOPS Exchange',
'Unknown authorisation');

FILE_SCHEMA( ('AUTOMOTIVE_DESIGN { 1 0 10303 214 1 1 1 1 }') );

ENDSEC;

DATA;
#3=(NAMED_UNIT(*)PLANE_ANGLE_UNIT()SI_UNIT($,.RADIAN.));
#4=PLANE_ANGLE_MEASURE_WITH_UNIT(PLANE_ANGLE_MEASURE(0.0174532925),#3);
#5=(CONVERSION_BASED_UNIT('DEGREE',#4)NAMED_UNIT(#6)PLANE_ANGLE_UNIT());
#6=DIMENSIONAL_EXPONENTS(0.,0.,0.,0.,0.,0.,0.);
#7=(NAMED_UNIT(*)SI_UNIT($,.STERADIAN.)SOLID_ANGLE_UNIT());
#8=(LENGTH_UNIT()NAMED_UNIT(*)SI_UNIT(.MILLI.,.METRE.));
#9=UNCERTAINTY_MEASURE_WITH_UNIT(LENGTH_MEASURE(1.000000E-005),#8,'DISTANCE_ACCURACY_VALUE','Maximum Tolerance applied to model');
#10=(GEOMETRIC_REPRESENTATION_CONTEXT(3)GLOBAL_UNCERTAINTY_ASSIGNED_CONTEXT((#9))GLOBAL_UNIT_ASSIGNED_CONTEXT((#8,#5,#7))REPRESENTATION_CONTEXT('','Bouchon'));
#12=CARTESIAN_POINT('',(0.0,0.0,0.0));
#13=DIRECTION('',(0.0,0.0,1.0));
#14=DIRECTION('',(1.0,0.0,0.0));
#15=AXIS2_PLACEMENT_3D('',#12,#13,#14);
#20=(NAMED_UNIT(*)PLANE_ANGLE_UNIT()SI_UNIT($,.RADIAN.));
#21=PLANE_ANGLE_MEASURE_WITH_UNIT(PLANE_ANGLE_MEASURE(0.0174532925),#20);
#22=(CONVERSION_BASED_UNIT('DEGREE',#21)NAMED_UNIT(#23)PLANE_ANGLE_UNIT());
#23=DIMENSIONAL_EXPONENTS(0.,0.,0.,0.,0.,0.,0.);
#24=(NAMED_UNIT(*)SI_UNIT($,.STERADIAN.)SOLID_ANGLE_UNIT());
#25=(LENGTH_UNIT()NAMED_UNIT(*)SI_UNIT(.MILLI.,.METRE.));
#26=UNCERTAINTY_MEASURE_WITH_UNIT(LENGTH_MEASURE(1.000000E-005),#25,'DISTANCE_ACCURACY_VALUE','Maximum Tolerance applied to model');
#27=(GEOMETRIC_REPRESENTATION_CONTEXT(3)GLOBAL_UNCERTAINTY_ASSIGNED_CONTEXT((#26))GLOBAL_UNIT_ASSIGNED_CONTEXT((#25,#22,#24))REPRESENTATION_CONTEXT('','D\S\ifaut'));
#29=CARTESIAN_POINT('',(0.0,0.0,0.0));
#30=DIRECTION('',(0.0,0.0,1.0));
#31=DIRECTION('',(1.0,0.0,0.0));
#32=AXIS2_PLACEMENT_3D('',#29,#30,#31);
#37=CARTESIAN_POINT('',(0.0,0.0,0.0));
#38=DIRECTION('',(0.0,0.0,1.0));
#39=DIRECTION('',(1.0,0.0,0.0));
#40=AXIS2_PLACEMENT_3D('',#37,#38,#39);
#41=ITEM_DEFINED_TRANSFORMATION('','',#40,#32);
#42=(REPRESENTATION_RELATIONSHIP('','',#33,#16)REPRESENTATION_RELATIONSHIP_WITH_TRANSFORMATION(#41)SHAPE_REPRESENTATION_RELATIONSHIP());
#43=NEXT_ASSEMBLY_USAGE_OCCURRENCE('D\S\ifaut_1','D\S\ifaut','D\S\ifaut',#19,#36,$);
#44=PRODUCT_DEFINITION_SHAPE('','',#43);
#45=CONTEXT_DEPENDENT_SHAPE_REPRESENTATION(#42,#44);
#47=CARTESIAN_POINT('',(-3.74521028,0.0,0.0));
#48=DIRECTION('',(-1.0,0.0,0.0));
#49=DIRECTION('',(0.0,0.0,1.0));
#50=AXIS2_PLACEMENT_3D('',#47,#48,#49);
#51=CYLINDRICAL_SURFACE('',#50,13.0);
#52=CARTESIAN_POINT('',(-4.5,-1.59204084E-015,13.0));
#53=VERTEX_POINT('',#52);
#54=CARTESIAN_POINT('',(-2.8,-1.59204084E-015,13.0));
#55=VERTEX_POINT('',#54);
#56=CARTESIAN_POINT('',(-4.5,0.0,13.0));
#57=DIRECTION('',(1.0,-0.0,-0.0));
#58=VECTOR('',#57,1.7);
#59=LINE('',#56,#58);
#60=EDGE_CURVE('',#53,#55,#59,.T.);
#61=ORIENTED_EDGE('',*,*,#60,.T.);
#62=CARTESIAN_POINT('',(-2.8,0.0,0.0));
#63=DIRECTION('',(-1.0,0.0,0.0));
#64=DIRECTION('',(0.0,0.0,1.0));
#65=AXIS2_PLACEMENT_3D('',#62,#63,#64);
#66=CIRCLE('',#65,13.0);
#67=EDGE_CURVE('',#55,#55,#66,.T.);
#68=ORIENTED_EDGE('',*,*,#67,.T.);
#69=ORIENTED_EDGE('',*,*,#60,.F.);
#70=CARTESIAN_POINT('',(-4.5,0.0,0.0));
#71=DIRECTION('',(-1.0,0.0,0.0));
#72=DIRECTION('',(0.0,0.0,1.0));
#73=AXIS2_PLACEMENT_3D('',#70,#71,#72);
#74=CIRCLE('',#73,13.0);
#75=EDGE_CURVE('',#53,#53,#74,.T.);
#76=ORIENTED_EDGE('',*,*,#75,.F.);
#77=EDGE_LOOP('',(#61,#68,#69,#76));
#78=FACE_BOUND('',#77,.T.);
#79=ADVANCED_FACE('',(#78),#51,.T.);
#80=CARTESIAN_POINT('',(-4.5,13.0,0.0));
#81=DIRECTION('',(1.0,0.0,0.0));
#82=DIRECTION('',(0.0,0.0,-1.0));
#83=AXIS2_PLACEMENT_3D('',#80,#81,#82);
#84=PLANE('',#83);
#85=ORIENTED_EDGE('',*,*,#75,.T.);
#86=EDGE_LOOP('',(#85));
#87=FACE_BOUND('',#86,.T.);
#88=ADVANCED_FACE('',(#87),#84,.F.);
#89=CARTESIAN_POINT('',(-8.67361738E-016,5.2,0.0));
#90=DIRECTION('',(1.0,0.0,0.0));
#91=DIRECTION('',(0.0,0.0,-1.0));
#92=AXIS2_PLACEMENT_3D('',#89,#90,#91);
#93=PLANE('',#92);
#94=CARTESIAN_POINT('',(-8.67361738E-016,-6.36816336E-016,5.2));
#95=VERTEX_POINT('',#94);
#96=CARTESIAN_POINT('',(-8.67361738E-016,0.0,0.0));
#97=DIRECTION('',(-1.0,0.0,0.0));
#98=DIRECTION('',(0.0,0.0,1.0));
#99=AXIS2_PLACEMENT_3D('',#96,#97,#98);
#100=CIRCLE('',#99,5.2);
#101=EDGE_CURVE('',#95,#95,#100,.T.);
#102=ORIENTED_EDGE('',*,*,#101,.F.);
#103=EDGE_LOOP('',(#102));
#104=FACE_BOUND('',#103,.T.);
#105=ADVANCED_FACE('',(#104),#93,.T.);
#106=CARTESIAN_POINT('',(-3.74521028,0.0,0.0));
#107=DIRECTION('',(-1.0,0.0,0.0));
#108=DIRECTION('',(0.0,0.0,1.0));
#109=AXIS2_PLACEMENT_3D('',#106,#107,#108);
#110=CYLINDRICAL_SURFACE('',#109,5.2);
#111=CARTESIAN_POINT('',(-0.4,-6.36816336E-016,5.2));
#112=VERTEX_POINT('',#111);
#113=CARTESIAN_POINT('',(-0.4,0.0,5.2));
#114=DIRECTION('',(1.0,-0.0,-0.0));
#115=VECTOR('',#114,0.4);
#116=LINE('',#113,#115);
#117=EDGE_CURVE('',#112,#95,#116,.T.);
#118=ORIENTED_EDGE('',*,*,#117,.T.);
#119=ORIENTED_EDGE('',*,*,#101,.T.);
#120=ORIENTED_EDGE('',*,*,#117,.F.);
#121=CARTESIAN_POINT('',(-0.4,0.0,0.0));
#122=DIRECTION('',(-1.0,0.0,0.0));
#123=DIRECTION('',(0.0,0.0,1.0));
#124=AXIS2_PLACEMENT_3D('',#121,#122,#123);
#125=CIRCLE('',#124,5.2);
#126=EDGE_CURVE('',#112,#112,#125,.T.);
#127=ORIENTED_EDGE('',*,*,#126,.F.);
#128=EDGE_LOOP('',(#118,#119,#120,#127));
#129=FACE_BOUND('',#128,.T.);
#130=ADVANCED_FACE('',(#129),#110,.T.);
#131=CARTESIAN_POINT('',(-0.4,13.0,0.0));
#132=DIRECTION('',(1.0,0.0,0.0));
#133=DIRECTION('',(0.0,0.0,-1.0));
#134=AXIS2_PLACEMENT_3D('',#131,#132,#133);
#135=PLANE('',#134);
#136=ORIENTED_EDGE('',*,*,#126,.T.);
#137=EDGE_LOOP('',(#136));
#138=FACE_BOUND('',#137,.T.);
#139=CARTESIAN_POINT('',(-0.4,-1.59204084E-015,13.0));
#140=VERTEX_POINT('',#139);
#141=CARTESIAN_POINT('',(-0.4,0.0,0.0));
#142=DIRECTION('',(-1.0,0.0,0.0));
#143=DIRECTION('',(0.0,0.0,1.0));
#144=AXIS2_PLACEMENT_3D('',#141,#142,#143);
#145=CIRCLE('',#144,13.0);
#146=EDGE_CURVE('',#140,#140,#145,.T.);
#147=ORIENTED_EDGE('',*,*,#146,.F.);
#148=EDGE_LOOP('',(#147));
#149=FACE_BOUND('',#148,.T.);
#150=ADVANCED_FACE('',(#138,#149),#135,.T.);
#151=CARTESIAN_POINT('',(-3.74521028,0.0,0.0));
#152=DIRECTION('',(-1.0,0.0,0.0));
#153=DIRECTION('',(0.0,0.0,1.0));
#154=AXIS2_PLACEMENT_3D('',#151,#152,#153);
#155=CYLINDRICAL_SURFACE('',#154,13.0);
#156=CARTESIAN_POINT('',(-1.3,-1.59204084E-015,13.0));
#157=VERTEX_POINT('',#156);
#158=CARTESIAN_POINT('',(-1.3,0.0,13.0));
#159=DIRECTION('',(1.0,-0.0,-0.0));
#160=VECTOR('',#159,0.9);
#161=LINE('',#158,#160);
#162=EDGE_CURVE('',#157,#140,#161,.T.);
#163=ORIENTED_EDGE('',*,*,#162,.T.);
#164=ORIENTED_EDGE('',*,*,#146,.T.);
#165=ORIENTED_EDGE('',*,*,#162,.F.);
#166=CARTESIAN_POINT('',(-1.3,0.0,0.0));
#167=DIRECTION('',(-1.0,0.0,0.0));
#168=DIRECTION('',(0.0,0.0,1.0));
#169=AXIS2_PLACEMENT_3D('',#166,#167,#168);
#170=CIRCLE('',#169,13.0);
#171=EDGE_CURVE('',#157,#157,#170,.T.);
#172=ORIENTED_EDGE('',*,*,#171,.F.);
#173=EDGE_LOOP('',(#163,#164,#165,#172));
#174=FACE_BOUND('',#173,.T.);
#175=ADVANCED_FACE('',(#174),#155,.T.);
#176=CARTESIAN_POINT('',(-1.3,13.0,0.0));
#177=DIRECTION('',(1.0,0.0,0.0));
#178=DIRECTION('',(0.0,0.0,-1.0));
#179=AXIS2_PLACEMENT_3D('',#176,#177,#178);
#180=PLANE('',#179);
#181=CARTESIAN_POINT('',(-1.3,-1.40834382E-015,11.5));
#182=VERTEX_POINT('',#181);
#183=CARTESIAN_POINT('',(-1.3,0.0,0.0));
#184=DIRECTION('',(-1.0,0.0,0.0));
#185=DIRECTION('',(0.0,0.0,1.0));
#186=AXIS2_PLACEMENT_3D('',#183,#184,#185);
#187=CIRCLE('',#186,11.5);
#188=EDGE_CURVE('',#182,#182,#187,.T.);
#189=ORIENTED_EDGE('',*,*,#188,.F.);
#190=EDGE_LOOP('',(#189));
#191=FACE_BOUND('',#190,.T.);
#192=ORIENTED_EDGE('',*,*,#171,.T.);
#193=EDGE_LOOP('',(#192));
#194=FACE_BOUND('',#193,.T.);
#195=ADVANCED_FACE('',(#191,#194),#180,.F.);
#196=CARTESIAN_POINT('',(-3.74521028,0.0,0.0));
#197=DIRECTION('',(-1.0,0.0,0.0));
#198=DIRECTION('',(0.0,0.0,1.0));
#199=AXIS2_PLACEMENT_3D('',#196,#197,#198);
#200=CYLINDRICAL_SURFACE('',#199,11.5);
#201=CARTESIAN_POINT('',(-2.8,-1.40834382E-015,11.5));
#202=VERTEX_POINT('',#201);
#203=CARTESIAN_POINT('',(-2.8,0.0,11.5));
#204=DIRECTION('',(1.0,-0.0,-0.0));
#205=VECTOR('',#204,1.5);
#206=LINE('',#203,#205);
#207=EDGE_CURVE('',#202,#182,#206,.T.);
#208=ORIENTED_EDGE('',*,*,#207,.T.);
#209=ORIENTED_EDGE('',*,*,#188,.T.);
#210=ORIENTED_EDGE('',*,*,#207,.F.);
#211=CARTESIAN_POINT('',(-2.8,0.0,0.0));
#212=DIRECTION('',(-1.0,0.0,0.0));
#213=DIRECTION('',(0.0,0.0,1.0));
#214=AXIS2_PLACEMENT_3D('',#211,#212,#213);
#215=CIRCLE('',#214,11.5);
#216=EDGE_CURVE('',#202,#202,#215,.T.);
#217=ORIENTED_EDGE('',*,*,#216,.F.);
#218=EDGE_LOOP('',(#208,#209,#210,#217));
#219=FACE_BOUND('',#218,.T.);
#220=ADVANCED_FACE('',(#219),#200,.T.);
#221=CARTESIAN_POINT('',(-2.8,13.0,0.0));
#222=DIRECTION('',(1.0,0.0,0.0));
#223=DIRECTION('',(0.0,0.0,-1.0));
#224=AXIS2_PLACEMENT_3D('',#221,#222,#223);
#225=PLANE('',#224);
#226=ORIENTED_EDGE('',*,*,#216,.T.);
#227=EDGE_LOOP('',(#226));
#228=FACE_BOUND('',#227,.T.);
#229=ORIENTED_EDGE('',*,*,#67,.F.);
#230=EDGE_LOOP('',(#229));
#231=FACE_BOUND('',#230,.T.);
#232=ADVANCED_FACE('',(#228,#231),#225,.T.);
#233=CLOSED_SHELL('',(#79,#88,#105,#130,#150,#175,#195,#220,#232));
#234=MANIFOLD_SOLID_BREP('',#233);
#235=COLOUR_RGB('',0.792156875,0.819607854,0.933333337);
#236=FILL_AREA_STYLE_COLOUR('',#235);
#237=FILL_AREA_STYLE('',(#236));
#238=SURFACE_STYLE_FILL_AREA(#237);
#239=SURFACE_SIDE_STYLE('',(#238));
#240=SURFACE_STYLE_USAGE(.BOTH.,#239);
#241=PRESENTATION_STYLE_ASSIGNMENT((#240));
#46=STYLED_ITEM('',(#241),#234);
#33=SHAPE_REPRESENTATION('D\S\ifaut',(#32),#27);
#242=ADVANCED_BREP_SHAPE_REPRESENTATION('D\S\ifaut',(#234),#27);
#243=SHAPE_REPRESENTATION_RELATIONSHIP('','',#33,#242);
#244=APPLICATION_CONTEXT('data for automotive mechanical design processes');
#245=APPLICATION_PROTOCOL_DEFINITION('international standard','automotive_design',1994,#244);
#246=PRODUCT_CONTEXT('',#244,'mechanical');
#247=PRODUCT_DEFINITION_CONTEXT('part definition',#244,'design');
#35=PRODUCT('D\S\ifaut','D\S\ifaut','',(#246));
#248=PRODUCT_RELATED_PRODUCT_CATEGORY('part','',(#35));
#249=PRODUCT_DEFINITION_FORMATION_WITH_SPECIFIED_SOURCE('','',#35,.NOT_KNOWN.);
#36=PRODUCT_DEFINITION('design','',#249,#247);
#34=PRODUCT_DEFINITION_SHAPE('','',#36);
#250=SHAPE_DEFINITION_REPRESENTATION(#34,#33);
#28=DRAUGHTING_MODEL('',(),#27);
#16=SHAPE_REPRESENTATION('Bouchon',(#15,#40),#10);
#18=PRODUCT('Bouchon','Bouchon','',(#246));
#251=PRODUCT_RELATED_PRODUCT_CATEGORY('part','',(#18));
#252=PRODUCT_DEFINITION_FORMATION_WITH_SPECIFIED_SOURCE('','',#18,.NOT_KNOWN.);
#19=PRODUCT_DEFINITION('design','',#252,#247);
#17=PRODUCT_DEFINITION_SHAPE('','',#19);
#253=SHAPE_DEFINITION_REPRESENTATION(#17,#16);
#11=DRAUGHTING_MODEL('',(),#10);
#1=MECHANICAL_DESIGN_GEOMETRIC_PRESENTATION_REPRESENTATION('',(#46),#10);
ENDSEC;
END-ISO-10303-21;
