ISO-10303-21;
HEADER;

/* File generated by HOOPS Exchange Version 10.0.20 */

FILE_DESCRIPTION(('HOOPS Exchange Step'),'2;1');

FILE_NAME('c:\\tempstorage\\0535608603416743\\Joint torrique.step',
'2018-12-28T16:49:31+00:00',
('SYSTEM'),
('Unknown organisation'),
'HOOPS Exchange 10.0',
'HOOPS Exchange',
'Unknown authorisation');

FILE_SCHEMA( ('AUTOMOTIVE_DESIGN { 1 0 10303 214 1 1 1 1 }') );

ENDSEC;

DATA;
#3=(NAMED_UNIT(*)PLANE_ANGLE_UNIT()SI_UNIT($,.RADIAN.));
#4=PLANE_ANGLE_MEASURE_WITH_UNIT(PLANE_ANGLE_MEASURE(0.0174532925),#3);
#5=(CONVERSION_BASED_UNIT('DEGREE',#4)NAMED_UNIT(#6)PLANE_ANGLE_UNIT());
#6=DIMENSIONAL_EXPONENTS(0.,0.,0.,0.,0.,0.,0.);
#7=(NAMED_UNIT(*)SI_UNIT($,.STERADIAN.)SOLID_ANGLE_UNIT());
#8=(LENGTH_UNIT()NAMED_UNIT(*)SI_UNIT(.MILLI.,.METRE.));
#9=UNCERTAINTY_MEASURE_WITH_UNIT(LENGTH_MEASURE(1.000000E-005),#8,'DISTANCE_ACCURACY_VALUE','Maximum Tolerance applied to model');
#10=(GEOMETRIC_REPRESENTATION_CONTEXT(3)GLOBAL_UNCERTAINTY_ASSIGNED_CONTEXT((#9))GLOBAL_UNIT_ASSIGNED_CONTEXT((#8,#5,#7))REPRESENTATION_CONTEXT('','Joint torrique'));
#12=CARTESIAN_POINT('',(0.0,0.0,0.0));
#13=DIRECTION('',(0.0,0.0,1.0));
#14=DIRECTION('',(1.0,0.0,0.0));
#15=AXIS2_PLACEMENT_3D('',#12,#13,#14);
#20=(NAMED_UNIT(*)PLANE_ANGLE_UNIT()SI_UNIT($,.RADIAN.));
#21=PLANE_ANGLE_MEASURE_WITH_UNIT(PLANE_ANGLE_MEASURE(0.0174532925),#20);
#22=(CONVERSION_BASED_UNIT('DEGREE',#21)NAMED_UNIT(#23)PLANE_ANGLE_UNIT());
#23=DIMENSIONAL_EXPONENTS(0.,0.,0.,0.,0.,0.,0.);
#24=(NAMED_UNIT(*)SI_UNIT($,.STERADIAN.)SOLID_ANGLE_UNIT());
#25=(LENGTH_UNIT()NAMED_UNIT(*)SI_UNIT(.MILLI.,.METRE.));
#26=UNCERTAINTY_MEASURE_WITH_UNIT(LENGTH_MEASURE(1.000000E-005),#25,'DISTANCE_ACCURACY_VALUE','Maximum Tolerance applied to model');
#27=(GEOMETRIC_REPRESENTATION_CONTEXT(3)GLOBAL_UNCERTAINTY_ASSIGNED_CONTEXT((#26))GLOBAL_UNIT_ASSIGNED_CONTEXT((#25,#22,#24))REPRESENTATION_CONTEXT('','D\S\ifaut'));
#29=CARTESIAN_POINT('',(0.0,0.0,0.0));
#30=DIRECTION('',(0.0,0.0,1.0));
#31=DIRECTION('',(1.0,0.0,0.0));
#32=AXIS2_PLACEMENT_3D('',#29,#30,#31);
#37=CARTESIAN_POINT('',(0.0,0.0,0.0));
#38=DIRECTION('',(0.0,0.0,1.0));
#39=DIRECTION('',(1.0,0.0,0.0));
#40=AXIS2_PLACEMENT_3D('',#37,#38,#39);
#41=ITEM_DEFINED_TRANSFORMATION('','',#40,#32);
#42=(REPRESENTATION_RELATIONSHIP('','',#33,#16)REPRESENTATION_RELATIONSHIP_WITH_TRANSFORMATION(#41)SHAPE_REPRESENTATION_RELATIONSHIP());
#43=NEXT_ASSEMBLY_USAGE_OCCURRENCE('D\S\ifaut_1','D\S\ifaut','D\S\ifaut',#19,#36,$);
#44=PRODUCT_DEFINITION_SHAPE('','',#43);
#45=CONTEXT_DEPENDENT_SHAPE_REPRESENTATION(#42,#44);
#47=CARTESIAN_POINT('',(1.0,0.0,0.0));
#48=DIRECTION('',(-1.0,0.0,0.0));
#49=DIRECTION('',(0.0,0.0,1.0));
#50=AXIS2_PLACEMENT_3D('',#47,#48,#49);
#51=TOROIDAL_SURFACE('',#50,12.0,0.5);
#52=CARTESIAN_POINT('',(1.5,-1.46957616E-015,12.0));
#53=VERTEX_POINT('',#52);
#54=CARTESIAN_POINT('',(1.0,-1.40834382E-015,11.5));
#55=VERTEX_POINT('',#54);
#56=CARTESIAN_POINT('',(1.0,0.0,12.0));
#57=DIRECTION('',(-0.0,1.0,-0.0));
#58=DIRECTION('',(0.0,0.0,1.0));
#59=AXIS2_PLACEMENT_3D('',#56,#57,#58);
#60=CIRCLE('',#59,0.5);
#61=EDGE_CURVE('',#53,#55,#60,.T.);
#62=ORIENTED_EDGE('',*,*,#61,.T.);
#63=CARTESIAN_POINT('',(1.0,0.0,0.0));
#64=DIRECTION('',(-1.0,0.0,0.0));
#65=DIRECTION('',(0.0,0.0,1.0));
#66=AXIS2_PLACEMENT_3D('',#63,#64,#65);
#67=CIRCLE('',#66,11.5);
#68=EDGE_CURVE('',#55,#55,#67,.T.);
#69=ORIENTED_EDGE('',*,*,#68,.T.);
#70=ORIENTED_EDGE('',*,*,#61,.F.);
#71=CARTESIAN_POINT('',(1.5,0.0,0.0));
#72=DIRECTION('',(-1.0,0.0,0.0));
#73=DIRECTION('',(0.0,0.0,1.0));
#74=AXIS2_PLACEMENT_3D('',#71,#72,#73);
#75=CIRCLE('',#74,12.0);
#76=EDGE_CURVE('',#53,#53,#75,.T.);
#77=ORIENTED_EDGE('',*,*,#76,.F.);
#78=EDGE_LOOP('',(#62,#69,#70,#77));
#79=FACE_BOUND('',#78,.T.);
#80=ADVANCED_FACE('',(#79),#51,.T.);
#81=CARTESIAN_POINT('',(-12.3320364,0.0,0.0));
#82=DIRECTION('',(-1.0,0.0,0.0));
#83=DIRECTION('',(0.0,0.0,1.0));
#84=AXIS2_PLACEMENT_3D('',#81,#82,#83);
#85=CYLINDRICAL_SURFACE('',#84,11.5);
#86=CARTESIAN_POINT('',(0.5,-1.40834382E-015,11.5));
#87=VERTEX_POINT('',#86);
#88=CARTESIAN_POINT('',(0.5,0.0,11.5));
#89=DIRECTION('',(1.0,-0.0,-0.0));
#90=VECTOR('',#89,0.5);
#91=LINE('',#88,#90);
#92=EDGE_CURVE('',#87,#55,#91,.T.);
#93=ORIENTED_EDGE('',*,*,#92,.F.);
#94=CARTESIAN_POINT('',(0.5,0.0,0.0));
#95=DIRECTION('',(-1.0,0.0,0.0));
#96=DIRECTION('',(0.0,0.0,1.0));
#97=AXIS2_PLACEMENT_3D('',#94,#95,#96);
#98=CIRCLE('',#97,11.5);
#99=EDGE_CURVE('',#87,#87,#98,.T.);
#100=ORIENTED_EDGE('',*,*,#99,.T.);
#101=ORIENTED_EDGE('',*,*,#92,.T.);
#102=ORIENTED_EDGE('',*,*,#68,.F.);
#103=EDGE_LOOP('',(#93,#100,#101,#102));
#104=FACE_BOUND('',#103,.T.);
#105=ADVANCED_FACE('',(#104),#85,.F.);
#106=CARTESIAN_POINT('',(0.5,0.0,0.0));
#107=DIRECTION('',(-1.0,0.0,0.0));
#108=DIRECTION('',(0.0,0.0,1.0));
#109=AXIS2_PLACEMENT_3D('',#106,#107,#108);
#110=TOROIDAL_SURFACE('',#109,12.0,0.5);
#111=CARTESIAN_POINT('',(1.08420217E-016,-1.46957616E-015,12.0));
#112=VERTEX_POINT('',#111);
#113=CARTESIAN_POINT('',(0.5,0.0,12.0));
#114=DIRECTION('',(-0.0,1.0,-0.0));
#115=DIRECTION('',(0.0,0.0,1.0));
#116=AXIS2_PLACEMENT_3D('',#113,#114,#115);
#117=CIRCLE('',#116,0.5);
#118=EDGE_CURVE('',#87,#112,#117,.T.);
#119=ORIENTED_EDGE('',*,*,#118,.T.);
#120=CARTESIAN_POINT('',(0.0,0.0,0.0));
#121=DIRECTION('',(-1.0,0.0,0.0));
#122=DIRECTION('',(0.0,0.0,1.0));
#123=AXIS2_PLACEMENT_3D('',#120,#121,#122);
#124=CIRCLE('',#123,12.0);
#125=EDGE_CURVE('',#112,#112,#124,.T.);
#126=ORIENTED_EDGE('',*,*,#125,.T.);
#127=ORIENTED_EDGE('',*,*,#118,.F.);
#128=ORIENTED_EDGE('',*,*,#99,.F.);
#129=EDGE_LOOP('',(#119,#126,#127,#128));
#130=FACE_BOUND('',#129,.T.);
#131=ADVANCED_FACE('',(#130),#110,.T.);
#132=CARTESIAN_POINT('',(-1.08420217E-016,12.0,0.0));
#133=DIRECTION('',(1.0,0.0,0.0));
#134=DIRECTION('',(0.0,0.0,-1.0));
#135=AXIS2_PLACEMENT_3D('',#132,#133,#134);
#136=PLANE('',#135);
#137=ORIENTED_EDGE('',*,*,#125,.F.);
#138=EDGE_LOOP('',(#137));
#139=FACE_BOUND('',#138,.T.);
#140=CARTESIAN_POINT('',(1.08420217E-016,-1.5308085E-015,12.5));
#141=VERTEX_POINT('',#140);
#142=CARTESIAN_POINT('',(0.0,0.0,0.0));
#143=DIRECTION('',(-1.0,0.0,0.0));
#144=DIRECTION('',(0.0,0.0,1.0));
#145=AXIS2_PLACEMENT_3D('',#142,#143,#144);
#146=CIRCLE('',#145,12.5);
#147=EDGE_CURVE('',#141,#141,#146,.T.);
#148=ORIENTED_EDGE('',*,*,#147,.T.);
#149=EDGE_LOOP('',(#148));
#150=FACE_BOUND('',#149,.T.);
#151=ADVANCED_FACE('',(#139,#150),#136,.F.);
#152=CARTESIAN_POINT('',(0.5,0.0,0.0));
#153=DIRECTION('',(-1.0,0.0,0.0));
#154=DIRECTION('',(0.0,0.0,1.0));
#155=AXIS2_PLACEMENT_3D('',#152,#153,#154);
#156=TOROIDAL_SURFACE('',#155,12.5,0.5);
#157=CARTESIAN_POINT('',(0.5,-1.59204084E-015,13.0));
#158=VERTEX_POINT('',#157);
#159=CARTESIAN_POINT('',(0.5,0.0,12.5));
#160=DIRECTION('',(-0.0,1.0,-0.0));
#161=DIRECTION('',(0.0,0.0,1.0));
#162=AXIS2_PLACEMENT_3D('',#159,#160,#161);
#163=CIRCLE('',#162,0.5);
#164=EDGE_CURVE('',#141,#158,#163,.T.);
#165=ORIENTED_EDGE('',*,*,#164,.T.);
#166=CARTESIAN_POINT('',(0.5,0.0,0.0));
#167=DIRECTION('',(-1.0,0.0,0.0));
#168=DIRECTION('',(0.0,0.0,1.0));
#169=AXIS2_PLACEMENT_3D('',#166,#167,#168);
#170=CIRCLE('',#169,13.0);
#171=EDGE_CURVE('',#158,#158,#170,.T.);
#172=ORIENTED_EDGE('',*,*,#171,.T.);
#173=ORIENTED_EDGE('',*,*,#164,.F.);
#174=ORIENTED_EDGE('',*,*,#147,.F.);
#175=EDGE_LOOP('',(#165,#172,#173,#174));
#176=FACE_BOUND('',#175,.T.);
#177=ADVANCED_FACE('',(#176),#156,.T.);
#178=CARTESIAN_POINT('',(-12.3320364,0.0,0.0));
#179=DIRECTION('',(-1.0,0.0,0.0));
#180=DIRECTION('',(0.0,0.0,1.0));
#181=AXIS2_PLACEMENT_3D('',#178,#179,#180);
#182=CYLINDRICAL_SURFACE('',#181,13.0);
#183=CARTESIAN_POINT('',(1.0,-1.59204084E-015,13.0));
#184=VERTEX_POINT('',#183);
#185=CARTESIAN_POINT('',(0.5,0.0,13.0));
#186=DIRECTION('',(1.0,-0.0,-0.0));
#187=VECTOR('',#186,0.5);
#188=LINE('',#185,#187);
#189=EDGE_CURVE('',#158,#184,#188,.T.);
#190=ORIENTED_EDGE('',*,*,#189,.T.);
#191=CARTESIAN_POINT('',(1.0,0.0,0.0));
#192=DIRECTION('',(-1.0,0.0,0.0));
#193=DIRECTION('',(0.0,0.0,1.0));
#194=AXIS2_PLACEMENT_3D('',#191,#192,#193);
#195=CIRCLE('',#194,13.0);
#196=EDGE_CURVE('',#184,#184,#195,.T.);
#197=ORIENTED_EDGE('',*,*,#196,.T.);
#198=ORIENTED_EDGE('',*,*,#189,.F.);
#199=ORIENTED_EDGE('',*,*,#171,.F.);
#200=EDGE_LOOP('',(#190,#197,#198,#199));
#201=FACE_BOUND('',#200,.T.);
#202=ADVANCED_FACE('',(#201),#182,.T.);
#203=CARTESIAN_POINT('',(1.0,0.0,0.0));
#204=DIRECTION('',(-1.0,0.0,0.0));
#205=DIRECTION('',(0.0,0.0,1.0));
#206=AXIS2_PLACEMENT_3D('',#203,#204,#205);
#207=TOROIDAL_SURFACE('',#206,12.5,0.5);
#208=CARTESIAN_POINT('',(1.5,-1.5308085E-015,12.5));
#209=VERTEX_POINT('',#208);
#210=CARTESIAN_POINT('',(1.0,0.0,12.5));
#211=DIRECTION('',(-0.0,1.0,-0.0));
#212=DIRECTION('',(0.0,0.0,1.0));
#213=AXIS2_PLACEMENT_3D('',#210,#211,#212);
#214=CIRCLE('',#213,0.5);
#215=EDGE_CURVE('',#184,#209,#214,.T.);
#216=ORIENTED_EDGE('',*,*,#215,.T.);
#217=CARTESIAN_POINT('',(1.5,0.0,0.0));
#218=DIRECTION('',(-1.0,0.0,0.0));
#219=DIRECTION('',(0.0,0.0,1.0));
#220=AXIS2_PLACEMENT_3D('',#217,#218,#219);
#221=CIRCLE('',#220,12.5);
#222=EDGE_CURVE('',#209,#209,#221,.T.);
#223=ORIENTED_EDGE('',*,*,#222,.T.);
#224=ORIENTED_EDGE('',*,*,#215,.F.);
#225=ORIENTED_EDGE('',*,*,#196,.F.);
#226=EDGE_LOOP('',(#216,#223,#224,#225));
#227=FACE_BOUND('',#226,.T.);
#228=ADVANCED_FACE('',(#227),#207,.T.);
#229=CARTESIAN_POINT('',(1.5,12.0,0.0));
#230=DIRECTION('',(-1.0,0.0,0.0));
#231=DIRECTION('',(0.0,0.0,1.0));
#232=AXIS2_PLACEMENT_3D('',#229,#230,#231);
#233=PLANE('',#232);
#234=ORIENTED_EDGE('',*,*,#222,.F.);
#235=EDGE_LOOP('',(#234));
#236=FACE_BOUND('',#235,.T.);
#237=ORIENTED_EDGE('',*,*,#76,.T.);
#238=EDGE_LOOP('',(#237));
#239=FACE_BOUND('',#238,.T.);
#240=ADVANCED_FACE('',(#236,#239),#233,.F.);
#241=CLOSED_SHELL('',(#80,#105,#131,#151,#177,#202,#228,#240));
#242=MANIFOLD_SOLID_BREP('',#241);
#243=COLOUR_RGB('',0.752941191,0.752941191,0.752941191);
#244=FILL_AREA_STYLE_COLOUR('',#243);
#245=FILL_AREA_STYLE('',(#244));
#246=SURFACE_STYLE_FILL_AREA(#245);
#247=SURFACE_SIDE_STYLE('',(#246));
#248=SURFACE_STYLE_USAGE(.BOTH.,#247);
#249=PRESENTATION_STYLE_ASSIGNMENT((#248));
#46=STYLED_ITEM('',(#249),#242);
#33=SHAPE_REPRESENTATION('D\S\ifaut',(#32),#27);
#250=ADVANCED_BREP_SHAPE_REPRESENTATION('D\S\ifaut',(#242),#27);
#251=SHAPE_REPRESENTATION_RELATIONSHIP('','',#33,#250);
#252=APPLICATION_CONTEXT('data for automotive mechanical design processes');
#253=APPLICATION_PROTOCOL_DEFINITION('international standard','automotive_design',1994,#252);
#254=PRODUCT_CONTEXT('',#252,'mechanical');
#255=PRODUCT_DEFINITION_CONTEXT('part definition',#252,'design');
#35=PRODUCT('D\S\ifaut','D\S\ifaut','',(#254));
#256=PRODUCT_RELATED_PRODUCT_CATEGORY('part','',(#35));
#257=PRODUCT_DEFINITION_FORMATION_WITH_SPECIFIED_SOURCE('','',#35,.NOT_KNOWN.);
#36=PRODUCT_DEFINITION('design','',#257,#255);
#34=PRODUCT_DEFINITION_SHAPE('','',#36);
#258=SHAPE_DEFINITION_REPRESENTATION(#34,#33);
#28=DRAUGHTING_MODEL('',(),#27);
#16=SHAPE_REPRESENTATION('Joint torrique',(#15,#40),#10);
#18=PRODUCT('Joint torrique','Joint torrique','',(#254));
#259=PRODUCT_RELATED_PRODUCT_CATEGORY('part','',(#18));
#260=PRODUCT_DEFINITION_FORMATION_WITH_SPECIFIED_SOURCE('','',#18,.NOT_KNOWN.);
#19=PRODUCT_DEFINITION('design','',#260,#255);
#17=PRODUCT_DEFINITION_SHAPE('','',#19);
#261=SHAPE_DEFINITION_REPRESENTATION(#17,#16);
#11=DRAUGHTING_MODEL('',(),#10);
#1=MECHANICAL_DESIGN_GEOMETRIC_PRESENTATION_REPRESENTATION('',(#46),#10);
ENDSEC;
END-ISO-10303-21;
