ISO-10303-21;
HEADER;

/* File generated by HOOPS Exchange Version 10.0.20 */

FILE_DESCRIPTION(('HOOPS Exchange Step'),'2;1');

FILE_NAME('c:\\tempstorage\\2888338574843769\\Joint en U 25x17x5,5.step',
'2018-12-28T16:49:20+00:00',
('SYSTEM'),
('Unknown organisation'),
'HOOPS Exchange 10.0',
'HOOPS Exchange',
'Unknown authorisation');

FILE_SCHEMA( ('AUTOMOTIVE_DESIGN { 1 0 10303 214 1 1 1 1 }') );

ENDSEC;

DATA;
#3=(NAMED_UNIT(*)PLANE_ANGLE_UNIT()SI_UNIT($,.RADIAN.));
#4=PLANE_ANGLE_MEASURE_WITH_UNIT(PLANE_ANGLE_MEASURE(0.0174532925),#3);
#5=(CONVERSION_BASED_UNIT('DEGREE',#4)NAMED_UNIT(#6)PLANE_ANGLE_UNIT());
#6=DIMENSIONAL_EXPONENTS(0.,0.,0.,0.,0.,0.,0.);
#7=(NAMED_UNIT(*)SI_UNIT($,.STERADIAN.)SOLID_ANGLE_UNIT());
#8=(LENGTH_UNIT()NAMED_UNIT(*)SI_UNIT(.MILLI.,.METRE.));
#9=UNCERTAINTY_MEASURE_WITH_UNIT(LENGTH_MEASURE(1.000000E-005),#8,'DISTANCE_ACCURACY_VALUE','Maximum Tolerance applied to model');
#10=(GEOMETRIC_REPRESENTATION_CONTEXT(3)GLOBAL_UNCERTAINTY_ASSIGNED_CONTEXT((#9))GLOBAL_UNIT_ASSIGNED_CONTEXT((#8,#5,#7))REPRESENTATION_CONTEXT('','Joint en U 25x17x5,5'));
#12=CARTESIAN_POINT('',(0.0,0.0,0.0));
#13=DIRECTION('',(0.0,0.0,1.0));
#14=DIRECTION('',(1.0,0.0,0.0));
#15=AXIS2_PLACEMENT_3D('',#12,#13,#14);
#20=(NAMED_UNIT(*)PLANE_ANGLE_UNIT()SI_UNIT($,.RADIAN.));
#21=PLANE_ANGLE_MEASURE_WITH_UNIT(PLANE_ANGLE_MEASURE(0.0174532925),#20);
#22=(CONVERSION_BASED_UNIT('DEGREE',#21)NAMED_UNIT(#23)PLANE_ANGLE_UNIT());
#23=DIMENSIONAL_EXPONENTS(0.,0.,0.,0.,0.,0.,0.);
#24=(NAMED_UNIT(*)SI_UNIT($,.STERADIAN.)SOLID_ANGLE_UNIT());
#25=(LENGTH_UNIT()NAMED_UNIT(*)SI_UNIT(.MILLI.,.METRE.));
#26=UNCERTAINTY_MEASURE_WITH_UNIT(LENGTH_MEASURE(1.000000E-005),#25,'DISTANCE_ACCURACY_VALUE','Maximum Tolerance applied to model');
#27=(GEOMETRIC_REPRESENTATION_CONTEXT(3)GLOBAL_UNCERTAINTY_ASSIGNED_CONTEXT((#26))GLOBAL_UNIT_ASSIGNED_CONTEXT((#25,#22,#24))REPRESENTATION_CONTEXT('','D\S\ifaut'));
#29=CARTESIAN_POINT('',(0.0,0.0,0.0));
#30=DIRECTION('',(0.0,0.0,1.0));
#31=DIRECTION('',(1.0,0.0,0.0));
#32=AXIS2_PLACEMENT_3D('',#29,#30,#31);
#37=CARTESIAN_POINT('',(0.0,0.0,0.0));
#38=DIRECTION('',(0.0,0.0,1.0));
#39=DIRECTION('',(1.0,0.0,0.0));
#40=AXIS2_PLACEMENT_3D('',#37,#38,#39);
#41=ITEM_DEFINED_TRANSFORMATION('','',#40,#32);
#42=(REPRESENTATION_RELATIONSHIP('','',#33,#16)REPRESENTATION_RELATIONSHIP_WITH_TRANSFORMATION(#41)SHAPE_REPRESENTATION_RELATIONSHIP());
#43=NEXT_ASSEMBLY_USAGE_OCCURRENCE('D\S\ifaut_1','D\S\ifaut','D\S\ifaut',#19,#36,$);
#44=PRODUCT_DEFINITION_SHAPE('','',#43);
#45=CONTEXT_DEPENDENT_SHAPE_REPRESENTATION(#42,#44);
#47=CARTESIAN_POINT('',(0.0,8.35,0.0));
#48=DIRECTION('',(1.0,0.0,0.0));
#49=DIRECTION('',(0.0,0.0,-1.0));
#50=AXIS2_PLACEMENT_3D('',#47,#48,#49);
#51=PLANE('',#50);
#52=CARTESIAN_POINT('',(4.33680869E-016,-1.02258008E-015,8.35));
#53=VERTEX_POINT('',#52);
#54=CARTESIAN_POINT('',(0.0,0.0,0.0));
#55=DIRECTION('',(-1.0,0.0,0.0));
#56=DIRECTION('',(0.0,0.0,1.0));
#57=AXIS2_PLACEMENT_3D('',#54,#55,#56);
#58=CIRCLE('',#57,8.35);
#59=EDGE_CURVE('',#53,#53,#58,.T.);
#60=ORIENTED_EDGE('',*,*,#59,.F.);
#61=EDGE_LOOP('',(#60));
#62=FACE_BOUND('',#61,.T.);
#63=CARTESIAN_POINT('',(0.0,-1.2430165E-015,10.15));
#64=VERTEX_POINT('',#63);
#65=CARTESIAN_POINT('',(0.0,0.0,0.0));
#66=DIRECTION('',(-1.0,0.0,0.0));
#67=DIRECTION('',(0.0,0.0,1.0));
#68=AXIS2_PLACEMENT_3D('',#65,#66,#67);
#69=CIRCLE('',#68,10.15);
#70=EDGE_CURVE('',#64,#64,#69,.T.);
#71=ORIENTED_EDGE('',*,*,#70,.T.);
#72=EDGE_LOOP('',(#71));
#73=FACE_BOUND('',#72,.T.);
#74=ADVANCED_FACE('',(#62,#73),#51,.F.);
#75=CARTESIAN_POINT('',(-5.0,0.0,0.0));
#76=DIRECTION('',(-1.0,0.0,0.0));
#77=DIRECTION('',(0.0,0.0,1.0));
#78=AXIS2_PLACEMENT_3D('',#75,#76,#77);
#79=CYLINDRICAL_SURFACE('',#78,8.35);
#80=CARTESIAN_POINT('',(5.5,-1.02258008E-015,8.35));
#81=VERTEX_POINT('',#80);
#82=CARTESIAN_POINT('',(0.0,0.0,8.35));
#83=DIRECTION('',(1.0,-0.0,-0.0));
#84=VECTOR('',#83,5.5);
#85=LINE('',#82,#84);
#86=EDGE_CURVE('',#53,#81,#85,.T.);
#87=ORIENTED_EDGE('',*,*,#86,.F.);
#88=ORIENTED_EDGE('',*,*,#59,.T.);
#89=ORIENTED_EDGE('',*,*,#86,.T.);
#90=CARTESIAN_POINT('',(5.5,0.0,0.0));
#91=DIRECTION('',(-1.0,0.0,0.0));
#92=DIRECTION('',(0.0,0.0,1.0));
#93=AXIS2_PLACEMENT_3D('',#90,#91,#92);
#94=CIRCLE('',#93,8.35);
#95=EDGE_CURVE('',#81,#81,#94,.T.);
#96=ORIENTED_EDGE('',*,*,#95,.F.);
#97=EDGE_LOOP('',(#87,#88,#89,#96));
#98=FACE_BOUND('',#97,.T.);
#99=ADVANCED_FACE('',(#98),#79,.F.);
#100=CARTESIAN_POINT('',(5.5,8.35,0.0));
#101=DIRECTION('',(-1.0,0.0,0.0));
#102=DIRECTION('',(0.0,0.0,1.0));
#103=AXIS2_PLACEMENT_3D('',#100,#101,#102);
#104=PLANE('',#103);
#105=CARTESIAN_POINT('',(5.5,-1.47569939E-015,12.05));
#106=VERTEX_POINT('',#105);
#107=CARTESIAN_POINT('',(5.5,0.0,0.0));
#108=DIRECTION('',(-1.0,0.0,0.0));
#109=DIRECTION('',(0.0,0.0,1.0));
#110=AXIS2_PLACEMENT_3D('',#107,#108,#109);
#111=CIRCLE('',#110,12.05);
#112=EDGE_CURVE('',#106,#106,#111,.T.);
#113=ORIENTED_EDGE('',*,*,#112,.F.);
#114=EDGE_LOOP('',(#113));
#115=FACE_BOUND('',#114,.T.);
#116=ORIENTED_EDGE('',*,*,#95,.T.);
#117=EDGE_LOOP('',(#116));
#118=FACE_BOUND('',#117,.T.);
#119=ADVANCED_FACE('',(#115,#118),#104,.F.);
#120=CARTESIAN_POINT('',(-5.0,0.0,0.0));
#121=DIRECTION('',(-1.0,0.0,0.0));
#122=DIRECTION('',(0.0,0.0,1.0));
#123=AXIS2_PLACEMENT_3D('',#120,#121,#122);
#124=CYLINDRICAL_SURFACE('',#123,12.05);
#125=CARTESIAN_POINT('',(3.97133627,-1.47569939E-015,12.05));
#126=VERTEX_POINT('',#125);
#127=CARTESIAN_POINT('',(3.97133627,0.0,12.05));
#128=DIRECTION('',(1.0,-0.0,-0.0));
#129=VECTOR('',#128,1.52866373);
#130=LINE('',#127,#129);
#131=EDGE_CURVE('',#126,#106,#130,.T.);
#132=ORIENTED_EDGE('',*,*,#131,.T.);
#133=ORIENTED_EDGE('',*,*,#112,.T.);
#134=ORIENTED_EDGE('',*,*,#131,.F.);
#135=CARTESIAN_POINT('',(3.97133627,0.0,0.0));
#136=DIRECTION('',(-1.0,0.0,0.0));
#137=DIRECTION('',(0.0,0.0,1.0));
#138=AXIS2_PLACEMENT_3D('',#135,#136,#137);
#139=CIRCLE('',#138,12.05);
#140=EDGE_CURVE('',#126,#126,#139,.T.);
#141=ORIENTED_EDGE('',*,*,#140,.F.);
#142=EDGE_LOOP('',(#132,#133,#134,#141));
#143=FACE_BOUND('',#142,.T.);
#144=ADVANCED_FACE('',(#143),#124,.T.);
#145=CARTESIAN_POINT('',(3.97133627,0.0,0.0));
#146=DIRECTION('',(-1.0,0.0,0.0));
#147=DIRECTION('',(0.0,0.0,1.0));
#148=AXIS2_PLACEMENT_3D('',#145,#146,#147);
#149=CONICAL_SURFACE('',#148,12.05,10.1171105);
#150=CARTESIAN_POINT('',(1.53655532,-1.52890427E-015,12.4844508));
#151=VERTEX_POINT('',#150);
#152=CARTESIAN_POINT('',(1.53655532,0.0,12.4844508));
#153=DIRECTION('',(0.984450765,-0.0,-0.175660726));
#154=VECTOR('',#153,2.47323791);
#155=LINE('',#152,#154);
#156=EDGE_CURVE('',#151,#126,#155,.T.);
#157=ORIENTED_EDGE('',*,*,#156,.T.);
#158=ORIENTED_EDGE('',*,*,#140,.T.);
#159=ORIENTED_EDGE('',*,*,#156,.F.);
#160=CARTESIAN_POINT('',(1.53655532,0.0,0.0));
#161=DIRECTION('',(-1.0,0.0,0.0));
#162=DIRECTION('',(0.0,0.0,1.0));
#163=AXIS2_PLACEMENT_3D('',#160,#161,#162);
#164=CIRCLE('',#163,12.4844508);
#165=EDGE_CURVE('',#151,#151,#164,.T.);
#166=ORIENTED_EDGE('',*,*,#165,.F.);
#167=EDGE_LOOP('',(#157,#158,#159,#166));
#168=FACE_BOUND('',#167,.T.);
#169=ADVANCED_FACE('',(#168),#149,.T.);
#170=CARTESIAN_POINT('',(1.3608946,0.0,0.0));
#171=DIRECTION('',(-1.0,0.0,0.0));
#172=DIRECTION('',(0.0,0.0,1.0));
#173=AXIS2_PLACEMENT_3D('',#170,#171,#172);
#174=TOROIDAL_SURFACE('',#173,11.5,1.0);
#175=CARTESIAN_POINT('',(1.3608946,-1.5308085E-015,12.5));
#176=VERTEX_POINT('',#175);
#177=CARTESIAN_POINT('',(1.3608946,0.0,0.0));
#178=DIRECTION('',(1.0,-0.0,-0.0));
#179=DIRECTION('',(0.0,0.0,1.0));
#180=AXIS2_PLACEMENT_3D('',#177,#178,#179);
#181=CIRCLE('',#180,12.5);
#182=EDGE_CURVE('',#176,#176,#181,.T.);
#183=ORIENTED_EDGE('',*,*,#182,.T.);
#184=CARTESIAN_POINT('',(1.3608946,0.0,11.5));
#185=DIRECTION('',(-0.0,1.0,-0.0));
#186=DIRECTION('',(0.0,0.0,1.0));
#187=AXIS2_PLACEMENT_3D('',#184,#185,#186);
#188=CIRCLE('',#187,1.0);
#189=EDGE_CURVE('',#176,#151,#188,.T.);
#190=ORIENTED_EDGE('',*,*,#189,.T.);
#191=ORIENTED_EDGE('',*,*,#165,.T.);
#192=ORIENTED_EDGE('',*,*,#189,.F.);
#193=EDGE_LOOP('',(#183,#190,#191,#192));
#194=FACE_BOUND('',#193,.T.);
#195=ADVANCED_FACE('',(#194),#174,.T.);
#196=CARTESIAN_POINT('',(0.6,0.0,0.0));
#197=DIRECTION('',(1.0,0.0,0.0));
#198=DIRECTION('',(0.0,0.0,-1.0));
#199=AXIS2_PLACEMENT_3D('',#196,#197,#198);
#200=CONICAL_SURFACE('',#199,12.1488755,82.8749837);
#201=CARTESIAN_POINT('',(0.6,1.48780815E-015,-12.1488755));
#202=VERTEX_POINT('',#201);
#203=CARTESIAN_POINT('',(0.5,1.38983641E-015,-11.3488755));
#204=VERTEX_POINT('',#203);
#205=CARTESIAN_POINT('',(0.6,0.0,-12.1488755));
#206=DIRECTION('',(-0.124034735,-0.0,0.992277877));
#207=VECTOR('',#206,0.806225775);
#208=LINE('',#205,#207);
#209=EDGE_CURVE('',#202,#204,#208,.T.);
#210=ORIENTED_EDGE('',*,*,#209,.T.);
#211=CARTESIAN_POINT('',(0.5,-1.38983641E-015,11.3488755));
#212=VERTEX_POINT('',#211);
#213=CARTESIAN_POINT('',(0.5,0.0,0.0));
#214=DIRECTION('',(-1.0,0.0,0.0));
#215=DIRECTION('',(0.0,0.0,1.0));
#216=AXIS2_PLACEMENT_3D('',#213,#214,#215);
#217=CIRCLE('',#216,11.3488755);
#218=EDGE_CURVE('',#212,#204,#217,.T.);
#219=ORIENTED_EDGE('',*,*,#218,.F.);
#220=CARTESIAN_POINT('',(0.5,0.0,0.0));
#221=DIRECTION('',(-1.0,0.0,0.0));
#222=DIRECTION('',(0.0,0.0,1.0));
#223=AXIS2_PLACEMENT_3D('',#220,#221,#222);
#224=CIRCLE('',#223,11.3488755);
#225=EDGE_CURVE('',#204,#212,#224,.T.);
#226=ORIENTED_EDGE('',*,*,#225,.F.);
#227=ORIENTED_EDGE('',*,*,#209,.F.);
#228=CARTESIAN_POINT('',(0.6,-1.48780815E-015,12.1488755));
#229=VERTEX_POINT('',#228);
#230=CARTESIAN_POINT('',(0.6,0.0,0.0));
#231=DIRECTION('',(-1.0,0.0,0.0));
#232=DIRECTION('',(0.0,0.0,1.0));
#233=AXIS2_PLACEMENT_3D('',#230,#231,#232);
#234=CIRCLE('',#233,12.1488755);
#235=EDGE_CURVE('',#202,#229,#234,.T.);
#236=ORIENTED_EDGE('',*,*,#235,.T.);
#237=CARTESIAN_POINT('',(0.6,0.0,0.0));
#238=DIRECTION('',(-1.0,0.0,0.0));
#239=DIRECTION('',(0.0,0.0,1.0));
#240=AXIS2_PLACEMENT_3D('',#237,#238,#239);
#241=CIRCLE('',#240,12.1488755);
#242=EDGE_CURVE('',#229,#202,#241,.T.);
#243=ORIENTED_EDGE('',*,*,#242,.T.);
#244=EDGE_LOOP('',(#210,#219,#226,#227,#236,#243));
#245=FACE_BOUND('',#244,.T.);
#246=ADVANCED_FACE('',(#245),#200,.T.);
#247=CARTESIAN_POINT('',(0.5,0.0,0.0));
#248=DIRECTION('',(-1.0,0.0,0.0));
#249=DIRECTION('',(0.0,0.0,1.0));
#250=AXIS2_PLACEMENT_3D('',#247,#248,#249);
#251=CONICAL_SURFACE('',#250,11.3488755,10.1171105);
#252=CARTESIAN_POINT('',(2.77026429,-1.34022655E-015,10.9437803));
#253=VERTEX_POINT('',#252);
#254=CARTESIAN_POINT('',(0.5,0.0,11.3488755));
#255=DIRECTION('',(0.984450765,-0.0,-0.175660726));
#256=VECTOR('',#255,2.30612273);
#257=LINE('',#254,#256);
#258=EDGE_CURVE('',#212,#253,#257,.T.);
#259=ORIENTED_EDGE('',*,*,#258,.F.);
#260=ORIENTED_EDGE('',*,*,#218,.T.);
#261=ORIENTED_EDGE('',*,*,#225,.T.);
#262=ORIENTED_EDGE('',*,*,#258,.T.);
#263=CARTESIAN_POINT('',(2.77026429,0.0,0.0));
#264=DIRECTION('',(-1.0,0.0,0.0));
#265=DIRECTION('',(0.0,0.0,1.0));
#266=AXIS2_PLACEMENT_3D('',#263,#264,#265);
#267=CIRCLE('',#266,10.9437803);
#268=EDGE_CURVE('',#253,#253,#267,.T.);
#269=ORIENTED_EDGE('',*,*,#268,.F.);
#270=EDGE_LOOP('',(#259,#260,#261,#262,#269));
#271=FACE_BOUND('',#270,.T.);
#272=ADVANCED_FACE('',(#271),#251,.F.);
#273=CARTESIAN_POINT('',(2.7,0.0,0.0));
#274=DIRECTION('',(-1.0,0.0,0.0));
#275=DIRECTION('',(0.0,0.0,1.0));
#276=AXIS2_PLACEMENT_3D('',#273,#274,#275);
#277=TOROIDAL_SURFACE('',#276,10.55,0.4);
#278=CARTESIAN_POINT('',(2.7,-1.2430165E-015,10.15));
#279=VERTEX_POINT('',#278);
#280=CARTESIAN_POINT('',(2.7,0.0,10.55));
#281=DIRECTION('',(-0.0,1.0,-0.0));
#282=DIRECTION('',(0.0,0.0,1.0));
#283=AXIS2_PLACEMENT_3D('',#280,#281,#282);
#284=CIRCLE('',#283,0.4);
#285=EDGE_CURVE('',#253,#279,#284,.T.);
#286=ORIENTED_EDGE('',*,*,#285,.F.);
#287=ORIENTED_EDGE('',*,*,#268,.T.);
#288=ORIENTED_EDGE('',*,*,#285,.T.);
#289=CARTESIAN_POINT('',(2.7,0.0,0.0));
#290=DIRECTION('',(-1.0,0.0,0.0));
#291=DIRECTION('',(0.0,0.0,1.0));
#292=AXIS2_PLACEMENT_3D('',#289,#290,#291);
#293=CIRCLE('',#292,10.15);
#294=EDGE_CURVE('',#279,#279,#293,.T.);
#295=ORIENTED_EDGE('',*,*,#294,.F.);
#296=EDGE_LOOP('',(#286,#287,#288,#295));
#297=FACE_BOUND('',#296,.T.);
#298=ADVANCED_FACE('',(#297),#277,.F.);
#299=CARTESIAN_POINT('',(-5.0,0.0,0.0));
#300=DIRECTION('',(-1.0,0.0,0.0));
#301=DIRECTION('',(0.0,0.0,1.0));
#302=AXIS2_PLACEMENT_3D('',#299,#300,#301);
#303=CYLINDRICAL_SURFACE('',#302,10.15);
#304=CARTESIAN_POINT('',(0.0,0.0,10.15));
#305=DIRECTION('',(1.0,-0.0,-0.0));
#306=VECTOR('',#305,2.7);
#307=LINE('',#304,#306);
#308=EDGE_CURVE('',#64,#279,#307,.T.);
#309=ORIENTED_EDGE('',*,*,#308,.T.);
#310=ORIENTED_EDGE('',*,*,#294,.T.);
#311=ORIENTED_EDGE('',*,*,#308,.F.);
#312=ORIENTED_EDGE('',*,*,#70,.F.);
#313=EDGE_LOOP('',(#309,#310,#311,#312));
#314=FACE_BOUND('',#313,.T.);
#315=ADVANCED_FACE('',(#314),#303,.T.);
#316=CARTESIAN_POINT('',(1.3608946,0.0,0.0));
#317=DIRECTION('',(-1.0,0.0,0.0));
#318=DIRECTION('',(0.0,0.0,1.0));
#319=AXIS2_PLACEMENT_3D('',#316,#317,#318);
#320=TOROIDAL_SURFACE('',#319,11.5,1.0);
#321=ORIENTED_EDGE('',*,*,#182,.F.);
#322=CARTESIAN_POINT('',(1.3608946,0.0,11.5));
#323=DIRECTION('',(-0.0,1.0,-0.0));
#324=DIRECTION('',(0.0,0.0,1.0));
#325=AXIS2_PLACEMENT_3D('',#322,#323,#324);
#326=CIRCLE('',#325,1.0);
#327=EDGE_CURVE('',#229,#176,#326,.T.);
#328=ORIENTED_EDGE('',*,*,#327,.F.);
#329=ORIENTED_EDGE('',*,*,#235,.F.);
#330=ORIENTED_EDGE('',*,*,#242,.F.);
#331=ORIENTED_EDGE('',*,*,#327,.T.);
#332=EDGE_LOOP('',(#321,#328,#329,#330,#331));
#333=FACE_BOUND('',#332,.T.);
#334=ADVANCED_FACE('',(#333),#320,.T.);
#335=CLOSED_SHELL('',(#74,#99,#119,#144,#169,#195,#246,#272,#298,#315,#334));
#336=MANIFOLD_SOLID_BREP('',#335);
#337=COLOUR_RGB('',0.752941191,0.752941191,0.752941191);
#338=FILL_AREA_STYLE_COLOUR('',#337);
#339=FILL_AREA_STYLE('',(#338));
#340=SURFACE_STYLE_FILL_AREA(#339);
#341=SURFACE_SIDE_STYLE('',(#340));
#342=SURFACE_STYLE_USAGE(.BOTH.,#341);
#343=PRESENTATION_STYLE_ASSIGNMENT((#342));
#46=STYLED_ITEM('',(#343),#336);
#33=SHAPE_REPRESENTATION('D\S\ifaut',(#32),#27);
#344=ADVANCED_BREP_SHAPE_REPRESENTATION('D\S\ifaut',(#336),#27);
#345=SHAPE_REPRESENTATION_RELATIONSHIP('','',#33,#344);
#346=APPLICATION_CONTEXT('data for automotive mechanical design processes');
#347=APPLICATION_PROTOCOL_DEFINITION('international standard','automotive_design',1994,#346);
#348=PRODUCT_CONTEXT('',#346,'mechanical');
#349=PRODUCT_DEFINITION_CONTEXT('part definition',#346,'design');
#35=PRODUCT('D\S\ifaut','D\S\ifaut','',(#348));
#350=PRODUCT_RELATED_PRODUCT_CATEGORY('part','',(#35));
#351=PRODUCT_DEFINITION_FORMATION_WITH_SPECIFIED_SOURCE('','',#35,.NOT_KNOWN.);
#36=PRODUCT_DEFINITION('design','',#351,#349);
#34=PRODUCT_DEFINITION_SHAPE('','',#36);
#352=SHAPE_DEFINITION_REPRESENTATION(#34,#33);
#28=DRAUGHTING_MODEL('',(),#27);
#16=SHAPE_REPRESENTATION('Joint en U 25x17x5,5',(#15,#40),#10);
#18=PRODUCT('Joint en U 25x17x5,5','Joint en U 25x17x5,5','',(#348));
#353=PRODUCT_RELATED_PRODUCT_CATEGORY('part','',(#18));
#354=PRODUCT_DEFINITION_FORMATION_WITH_SPECIFIED_SOURCE('','',#18,.NOT_KNOWN.);
#19=PRODUCT_DEFINITION('design','',#354,#349);
#17=PRODUCT_DEFINITION_SHAPE('','',#19);
#355=SHAPE_DEFINITION_REPRESENTATION(#17,#16);
#11=DRAUGHTING_MODEL('',(),#10);
#1=MECHANICAL_DESIGN_GEOMETRIC_PRESENTATION_REPRESENTATION('',(#46),#10);
ENDSEC;
END-ISO-10303-21;
