ISO-10303-21;
HEADER;

/* File generated by HOOPS Exchange Version 10.0.20 */

FILE_DESCRIPTION(('HOOPS Exchange Step'),'2;1');

FILE_NAME('c:\\tempstorage\\4271858210515795\\Axe rainure.step',
'2018-12-28T16:47:59+00:00',
('SYSTEM'),
('Unknown organisation'),
'HOOPS Exchange 10.0',
'HOOPS Exchange',
'Unknown authorisation');

FILE_SCHEMA( ('AUTOMOTIVE_DESIGN { 1 0 10303 214 1 1 1 1 }') );

ENDSEC;

DATA;
#3=(NAMED_UNIT(*)PLANE_ANGLE_UNIT()SI_UNIT($,.RADIAN.));
#4=PLANE_ANGLE_MEASURE_WITH_UNIT(PLANE_ANGLE_MEASURE(0.0174532925),#3);
#5=(CONVERSION_BASED_UNIT('DEGREE',#4)NAMED_UNIT(#6)PLANE_ANGLE_UNIT());
#6=DIMENSIONAL_EXPONENTS(0.,0.,0.,0.,0.,0.,0.);
#7=(NAMED_UNIT(*)SI_UNIT($,.STERADIAN.)SOLID_ANGLE_UNIT());
#8=(LENGTH_UNIT()NAMED_UNIT(*)SI_UNIT(.MILLI.,.METRE.));
#9=UNCERTAINTY_MEASURE_WITH_UNIT(LENGTH_MEASURE(1.000000E-005),#8,'DISTANCE_ACCURACY_VALUE','Maximum Tolerance applied to model');
#10=(GEOMETRIC_REPRESENTATION_CONTEXT(3)GLOBAL_UNCERTAINTY_ASSIGNED_CONTEXT((#9))GLOBAL_UNIT_ASSIGNED_CONTEXT((#8,#5,#7))REPRESENTATION_CONTEXT('','Axe rainure'));
#12=CARTESIAN_POINT('',(0.0,0.0,0.0));
#13=DIRECTION('',(0.0,0.0,1.0));
#14=DIRECTION('',(1.0,0.0,0.0));
#15=AXIS2_PLACEMENT_3D('',#12,#13,#14);
#20=(NAMED_UNIT(*)PLANE_ANGLE_UNIT()SI_UNIT($,.RADIAN.));
#21=PLANE_ANGLE_MEASURE_WITH_UNIT(PLANE_ANGLE_MEASURE(0.0174532925),#20);
#22=(CONVERSION_BASED_UNIT('DEGREE',#21)NAMED_UNIT(#23)PLANE_ANGLE_UNIT());
#23=DIMENSIONAL_EXPONENTS(0.,0.,0.,0.,0.,0.,0.);
#24=(NAMED_UNIT(*)SI_UNIT($,.STERADIAN.)SOLID_ANGLE_UNIT());
#25=(LENGTH_UNIT()NAMED_UNIT(*)SI_UNIT(.MILLI.,.METRE.));
#26=UNCERTAINTY_MEASURE_WITH_UNIT(LENGTH_MEASURE(1.000000E-005),#25,'DISTANCE_ACCURACY_VALUE','Maximum Tolerance applied to model');
#27=(GEOMETRIC_REPRESENTATION_CONTEXT(3)GLOBAL_UNCERTAINTY_ASSIGNED_CONTEXT((#26))GLOBAL_UNIT_ASSIGNED_CONTEXT((#25,#22,#24))REPRESENTATION_CONTEXT('','D\S\ifaut'));
#29=CARTESIAN_POINT('',(0.0,0.0,0.0));
#30=DIRECTION('',(0.0,0.0,1.0));
#31=DIRECTION('',(1.0,0.0,0.0));
#32=AXIS2_PLACEMENT_3D('',#29,#30,#31);
#37=CARTESIAN_POINT('',(0.0,0.0,0.0));
#38=DIRECTION('',(0.0,0.0,1.0));
#39=DIRECTION('',(1.0,0.0,0.0));
#40=AXIS2_PLACEMENT_3D('',#37,#38,#39);
#41=ITEM_DEFINED_TRANSFORMATION('','',#40,#32);
#42=(REPRESENTATION_RELATIONSHIP('','',#33,#16)REPRESENTATION_RELATIONSHIP_WITH_TRANSFORMATION(#41)SHAPE_REPRESENTATION_RELATIONSHIP());
#43=NEXT_ASSEMBLY_USAGE_OCCURRENCE('D\S\ifaut_1','D\S\ifaut','D\S\ifaut',#19,#36,$);
#44=PRODUCT_DEFINITION_SHAPE('','',#43);
#45=CONTEXT_DEPENDENT_SHAPE_REPRESENTATION(#42,#44);
#47=CARTESIAN_POINT('',(13.5,0.0,-1.92592994E-031));
#48=DIRECTION('',(-1.0,0.0,0.0));
#49=DIRECTION('',(0.0,0.0,1.0));
#50=AXIS2_PLACEMENT_3D('',#47,#48,#49);
#51=CYLINDRICAL_SURFACE('',#50,3.0);
#52=CARTESIAN_POINT('',(-11.5,3.6739404E-016,3.0));
#53=VERTEX_POINT('',#52);
#54=CARTESIAN_POINT('',(11.5,3.6739404E-016,3.0));
#55=VERTEX_POINT('',#54);
#56=CARTESIAN_POINT('',(-11.5,0.0,3.0));
#57=DIRECTION('',(1.0,-0.0,-0.0));
#58=VECTOR('',#57,23.0);
#59=LINE('',#56,#58);
#60=EDGE_CURVE('',#53,#55,#59,.T.);
#61=ORIENTED_EDGE('',*,*,#60,.T.);
#62=CARTESIAN_POINT('',(11.5,-3.6739404E-016,-3.0));
#63=VERTEX_POINT('',#62);
#64=CARTESIAN_POINT('',(11.5,0.0,-1.92592994E-031));
#65=DIRECTION('',(1.0,0.0,0.0));
#66=DIRECTION('',(0.0,0.0,-1.0));
#67=AXIS2_PLACEMENT_3D('',#64,#65,#66);
#68=CIRCLE('',#67,3.0);
#69=EDGE_CURVE('',#63,#55,#68,.T.);
#70=ORIENTED_EDGE('',*,*,#69,.F.);
#71=CARTESIAN_POINT('',(11.5,0.0,-1.92592994E-031));
#72=DIRECTION('',(1.0,0.0,0.0));
#73=DIRECTION('',(0.0,0.0,-1.0));
#74=AXIS2_PLACEMENT_3D('',#71,#72,#73);
#75=CIRCLE('',#74,3.0);
#76=EDGE_CURVE('',#55,#63,#75,.T.);
#77=ORIENTED_EDGE('',*,*,#76,.F.);
#78=ORIENTED_EDGE('',*,*,#60,.F.);
#79=CARTESIAN_POINT('',(-11.5,-3.6739404E-016,-3.0));
#80=VERTEX_POINT('',#79);
#81=CARTESIAN_POINT('',(-11.5,0.0,-1.92592994E-031));
#82=DIRECTION('',(1.0,0.0,0.0));
#83=DIRECTION('',(0.0,0.0,-1.0));
#84=AXIS2_PLACEMENT_3D('',#81,#82,#83);
#85=CIRCLE('',#84,3.0);
#86=EDGE_CURVE('',#53,#80,#85,.T.);
#87=ORIENTED_EDGE('',*,*,#86,.T.);
#88=CARTESIAN_POINT('',(-11.5,0.0,-1.92592994E-031));
#89=DIRECTION('',(1.0,0.0,0.0));
#90=DIRECTION('',(0.0,0.0,-1.0));
#91=AXIS2_PLACEMENT_3D('',#88,#89,#90);
#92=CIRCLE('',#91,3.0);
#93=EDGE_CURVE('',#80,#53,#92,.T.);
#94=ORIENTED_EDGE('',*,*,#93,.T.);
#95=EDGE_LOOP('',(#61,#70,#77,#78,#87,#94));
#96=FACE_BOUND('',#95,.T.);
#97=ADVANCED_FACE('',(#96),#51,.T.);
#98=CARTESIAN_POINT('',(11.5,0.0,-1.92592994E-031));
#99=DIRECTION('',(1.0,0.0,0.0));
#100=DIRECTION('',(0.0,0.0,-1.0));
#101=AXIS2_PLACEMENT_3D('',#98,#99,#100);
#102=PLANE('',#101);
#103=CARTESIAN_POINT('',(11.5,-3.30654636E-016,-2.7));
#104=VERTEX_POINT('',#103);
#105=CARTESIAN_POINT('',(11.5,0.0,-1.92592994E-031));
#106=DIRECTION('',(1.0,0.0,0.0));
#107=DIRECTION('',(0.0,0.0,-1.0));
#108=AXIS2_PLACEMENT_3D('',#105,#106,#107);
#109=CIRCLE('',#108,2.7);
#110=EDGE_CURVE('',#104,#104,#109,.T.);
#111=ORIENTED_EDGE('',*,*,#110,.F.);
#112=EDGE_LOOP('',(#111));
#113=FACE_BOUND('',#112,.T.);
#114=ORIENTED_EDGE('',*,*,#69,.T.);
#115=ORIENTED_EDGE('',*,*,#76,.T.);
#116=EDGE_LOOP('',(#114,#115));
#117=FACE_BOUND('',#116,.T.);
#118=ADVANCED_FACE('',(#113,#117),#102,.T.);
#119=CARTESIAN_POINT('',(12.25,0.0,-1.92592994E-031));
#120=DIRECTION('',(1.0,0.0,0.0));
#121=DIRECTION('',(0.0,0.0,-1.0));
#122=AXIS2_PLACEMENT_3D('',#119,#120,#121);
#123=PLANE('',#122);
#124=CARTESIAN_POINT('',(12.25,-3.30654636E-016,-2.7));
#125=VERTEX_POINT('',#124);
#126=CARTESIAN_POINT('',(12.25,0.0,-1.92592994E-031));
#127=DIRECTION('',(1.0,0.0,0.0));
#128=DIRECTION('',(0.0,0.0,-1.0));
#129=AXIS2_PLACEMENT_3D('',#126,#127,#128);
#130=CIRCLE('',#129,2.7);
#131=EDGE_CURVE('',#125,#125,#130,.T.);
#132=ORIENTED_EDGE('',*,*,#131,.T.);
#133=EDGE_LOOP('',(#132));
#134=FACE_BOUND('',#133,.T.);
#135=CARTESIAN_POINT('',(12.25,3.6739404E-016,3.0));
#136=VERTEX_POINT('',#135);
#137=CARTESIAN_POINT('',(12.25,-3.6739404E-016,-3.0));
#138=VERTEX_POINT('',#137);
#139=CARTESIAN_POINT('',(12.25,0.0,-1.92592994E-031));
#140=DIRECTION('',(1.0,0.0,0.0));
#141=DIRECTION('',(0.0,0.0,-1.0));
#142=AXIS2_PLACEMENT_3D('',#139,#140,#141);
#143=CIRCLE('',#142,3.0);
#144=EDGE_CURVE('',#136,#138,#143,.T.);
#145=ORIENTED_EDGE('',*,*,#144,.F.);
#146=CARTESIAN_POINT('',(12.25,0.0,-1.92592994E-031));
#147=DIRECTION('',(1.0,0.0,0.0));
#148=DIRECTION('',(0.0,0.0,-1.0));
#149=AXIS2_PLACEMENT_3D('',#146,#147,#148);
#150=CIRCLE('',#149,3.0);
#151=EDGE_CURVE('',#138,#136,#150,.T.);
#152=ORIENTED_EDGE('',*,*,#151,.F.);
#153=EDGE_LOOP('',(#145,#152));
#154=FACE_BOUND('',#153,.T.);
#155=ADVANCED_FACE('',(#134,#154),#123,.F.);
#156=CARTESIAN_POINT('',(11.5,0.0,-1.92592994E-031));
#157=DIRECTION('',(1.0,0.0,0.0));
#158=DIRECTION('',(0.0,0.0,-1.0));
#159=AXIS2_PLACEMENT_3D('',#156,#157,#158);
#160=CYLINDRICAL_SURFACE('',#159,2.7);
#161=CARTESIAN_POINT('',(12.25,0.0,-2.7));
#162=DIRECTION('',(-1.0,-0.0,0.0));
#163=VECTOR('',#162,0.75);
#164=LINE('',#161,#163);
#165=EDGE_CURVE('',#125,#104,#164,.T.);
#166=ORIENTED_EDGE('',*,*,#165,.T.);
#167=ORIENTED_EDGE('',*,*,#110,.T.);
#168=ORIENTED_EDGE('',*,*,#165,.F.);
#169=ORIENTED_EDGE('',*,*,#131,.F.);
#170=EDGE_LOOP('',(#166,#167,#168,#169));
#171=FACE_BOUND('',#170,.T.);
#172=ADVANCED_FACE('',(#171),#160,.T.);
#173=CARTESIAN_POINT('',(13.5,0.0,-1.92592994E-031));
#174=DIRECTION('',(1.0,0.0,0.0));
#175=DIRECTION('',(0.0,0.0,-1.0));
#176=AXIS2_PLACEMENT_3D('',#173,#174,#175);
#177=PLANE('',#176);
#178=CARTESIAN_POINT('',(13.5,-2.7554553E-016,-2.25));
#179=VERTEX_POINT('',#178);
#180=CARTESIAN_POINT('',(13.5,2.7554553E-016,2.25));
#181=VERTEX_POINT('',#180);
#182=CARTESIAN_POINT('',(13.5,0.0,-1.92592994E-031));
#183=DIRECTION('',(1.0,0.0,0.0));
#184=DIRECTION('',(0.0,0.0,-1.0));
#185=AXIS2_PLACEMENT_3D('',#182,#183,#184);
#186=CIRCLE('',#185,2.25);
#187=EDGE_CURVE('',#179,#181,#186,.T.);
#188=ORIENTED_EDGE('',*,*,#187,.T.);
#189=CARTESIAN_POINT('',(13.5,0.0,-1.92592994E-031));
#190=DIRECTION('',(1.0,0.0,0.0));
#191=DIRECTION('',(0.0,0.0,-1.0));
#192=AXIS2_PLACEMENT_3D('',#189,#190,#191);
#193=CIRCLE('',#192,2.25);
#194=EDGE_CURVE('',#181,#179,#193,.T.);
#195=ORIENTED_EDGE('',*,*,#194,.T.);
#196=EDGE_LOOP('',(#188,#195));
#197=FACE_BOUND('',#196,.T.);
#198=ADVANCED_FACE('',(#197),#177,.T.);
#199=CARTESIAN_POINT('',(13.5,0.0,-1.92592994E-031));
#200=DIRECTION('',(-1.0,0.0,0.0));
#201=DIRECTION('',(0.0,0.0,1.0));
#202=AXIS2_PLACEMENT_3D('',#199,#200,#201);
#203=CYLINDRICAL_SURFACE('',#202,3.0);
#204=CARTESIAN_POINT('',(12.75,3.6739404E-016,3.0));
#205=VERTEX_POINT('',#204);
#206=CARTESIAN_POINT('',(12.25,0.0,3.0));
#207=DIRECTION('',(1.0,-0.0,-0.0));
#208=VECTOR('',#207,0.5);
#209=LINE('',#206,#208);
#210=EDGE_CURVE('',#136,#205,#209,.T.);
#211=ORIENTED_EDGE('',*,*,#210,.T.);
#212=CARTESIAN_POINT('',(12.75,-3.6739404E-016,-3.0));
#213=VERTEX_POINT('',#212);
#214=CARTESIAN_POINT('',(12.75,0.0,0.0));
#215=DIRECTION('',(-1.0,-0.0,-0.0));
#216=DIRECTION('',(0.0,0.0,-1.0));
#217=AXIS2_PLACEMENT_3D('',#214,#215,#216);
#218=CIRCLE('',#217,3.0);
#219=EDGE_CURVE('',#205,#213,#218,.T.);
#220=ORIENTED_EDGE('',*,*,#219,.T.);
#221=CARTESIAN_POINT('',(12.75,0.0,0.0));
#222=DIRECTION('',(-1.0,-0.0,-0.0));
#223=DIRECTION('',(0.0,0.0,-1.0));
#224=AXIS2_PLACEMENT_3D('',#221,#222,#223);
#225=CIRCLE('',#224,3.0);
#226=EDGE_CURVE('',#213,#205,#225,.T.);
#227=ORIENTED_EDGE('',*,*,#226,.T.);
#228=ORIENTED_EDGE('',*,*,#210,.F.);
#229=ORIENTED_EDGE('',*,*,#144,.T.);
#230=ORIENTED_EDGE('',*,*,#151,.T.);
#231=EDGE_LOOP('',(#211,#220,#227,#228,#229,#230));
#232=FACE_BOUND('',#231,.T.);
#233=ADVANCED_FACE('',(#232),#203,.T.);
#234=CARTESIAN_POINT('',(-11.5,0.0,1.34815096E-030));
#235=DIRECTION('',(1.0,0.0,0.0));
#236=DIRECTION('',(0.0,0.0,-1.0));
#237=AXIS2_PLACEMENT_3D('',#234,#235,#236);
#238=PLANE('',#237);
#239=CARTESIAN_POINT('',(-11.5,-3.30654636E-016,-2.7));
#240=VERTEX_POINT('',#239);
#241=CARTESIAN_POINT('',(-11.5,3.30654636E-016,2.7));
#242=VERTEX_POINT('',#241);
#243=CARTESIAN_POINT('',(-11.5,0.0,1.34815096E-030));
#244=DIRECTION('',(1.0,0.0,0.0));
#245=DIRECTION('',(0.0,0.0,-1.0));
#246=AXIS2_PLACEMENT_3D('',#243,#244,#245);
#247=CIRCLE('',#246,2.7);
#248=EDGE_CURVE('',#240,#242,#247,.T.);
#249=ORIENTED_EDGE('',*,*,#248,.T.);
#250=CARTESIAN_POINT('',(-11.5,0.0,1.34815096E-030));
#251=DIRECTION('',(1.0,0.0,0.0));
#252=DIRECTION('',(0.0,0.0,-1.0));
#253=AXIS2_PLACEMENT_3D('',#250,#251,#252);
#254=CIRCLE('',#253,2.7);
#255=EDGE_CURVE('',#242,#240,#254,.T.);
#256=ORIENTED_EDGE('',*,*,#255,.T.);
#257=EDGE_LOOP('',(#249,#256));
#258=FACE_BOUND('',#257,.T.);
#259=ORIENTED_EDGE('',*,*,#86,.F.);
#260=ORIENTED_EDGE('',*,*,#93,.F.);
#261=EDGE_LOOP('',(#259,#260));
#262=FACE_BOUND('',#261,.T.);
#263=ADVANCED_FACE('',(#258,#262),#238,.F.);
#264=CARTESIAN_POINT('',(-12.25,0.0,7.70371978E-031));
#265=DIRECTION('',(1.0,0.0,0.0));
#266=DIRECTION('',(0.0,0.0,-1.0));
#267=AXIS2_PLACEMENT_3D('',#264,#265,#266);
#268=PLANE('',#267);
#269=CARTESIAN_POINT('',(-12.25,3.30654636E-016,2.7));
#270=VERTEX_POINT('',#269);
#271=CARTESIAN_POINT('',(-12.25,-3.30654636E-016,-2.7));
#272=VERTEX_POINT('',#271);
#273=CARTESIAN_POINT('',(-12.25,0.0,7.70371978E-031));
#274=DIRECTION('',(1.0,0.0,0.0));
#275=DIRECTION('',(0.0,0.0,-1.0));
#276=AXIS2_PLACEMENT_3D('',#273,#274,#275);
#277=CIRCLE('',#276,2.7);
#278=EDGE_CURVE('',#270,#272,#277,.T.);
#279=ORIENTED_EDGE('',*,*,#278,.F.);
#280=CARTESIAN_POINT('',(-12.25,0.0,7.70371978E-031));
#281=DIRECTION('',(1.0,0.0,0.0));
#282=DIRECTION('',(0.0,0.0,-1.0));
#283=AXIS2_PLACEMENT_3D('',#280,#281,#282);
#284=CIRCLE('',#283,2.7);
#285=EDGE_CURVE('',#272,#270,#284,.T.);
#286=ORIENTED_EDGE('',*,*,#285,.F.);
#287=EDGE_LOOP('',(#279,#286));
#288=FACE_BOUND('',#287,.T.);
#289=CARTESIAN_POINT('',(-12.25,-3.6739404E-016,-3.0));
#290=VERTEX_POINT('',#289);
#291=CARTESIAN_POINT('',(-12.25,3.6739404E-016,3.0));
#292=VERTEX_POINT('',#291);
#293=CARTESIAN_POINT('',(-12.25,0.0,0.0));
#294=DIRECTION('',(1.0,0.0,0.0));
#295=DIRECTION('',(0.0,0.0,-1.0));
#296=AXIS2_PLACEMENT_3D('',#293,#294,#295);
#297=CIRCLE('',#296,3.0);
#298=EDGE_CURVE('',#290,#292,#297,.T.);
#299=ORIENTED_EDGE('',*,*,#298,.T.);
#300=CARTESIAN_POINT('',(-12.25,0.0,0.0));
#301=DIRECTION('',(1.0,0.0,0.0));
#302=DIRECTION('',(0.0,0.0,-1.0));
#303=AXIS2_PLACEMENT_3D('',#300,#301,#302);
#304=CIRCLE('',#303,3.0);
#305=EDGE_CURVE('',#292,#290,#304,.T.);
#306=ORIENTED_EDGE('',*,*,#305,.T.);
#307=EDGE_LOOP('',(#299,#306));
#308=FACE_BOUND('',#307,.T.);
#309=ADVANCED_FACE('',(#288,#308),#268,.T.);
#310=CARTESIAN_POINT('',(-11.5,0.0,1.34815096E-030));
#311=DIRECTION('',(-1.0,0.0,0.0));
#312=DIRECTION('',(0.0,0.0,1.0));
#313=AXIS2_PLACEMENT_3D('',#310,#311,#312);
#314=CYLINDRICAL_SURFACE('',#313,2.7);
#315=CARTESIAN_POINT('',(-12.25,0.0,2.7));
#316=DIRECTION('',(1.0,-0.0,-0.0));
#317=VECTOR('',#316,0.75);
#318=LINE('',#315,#317);
#319=EDGE_CURVE('',#270,#242,#318,.T.);
#320=ORIENTED_EDGE('',*,*,#319,.T.);
#321=ORIENTED_EDGE('',*,*,#248,.F.);
#322=ORIENTED_EDGE('',*,*,#255,.F.);
#323=ORIENTED_EDGE('',*,*,#319,.F.);
#324=ORIENTED_EDGE('',*,*,#278,.T.);
#325=ORIENTED_EDGE('',*,*,#285,.T.);
#326=EDGE_LOOP('',(#320,#321,#322,#323,#324,#325));
#327=FACE_BOUND('',#326,.T.);
#328=ADVANCED_FACE('',(#327),#314,.T.);
#329=CARTESIAN_POINT('',(-13.5,0.0,-1.92592994E-031));
#330=DIRECTION('',(1.0,0.0,0.0));
#331=DIRECTION('',(0.0,0.0,-1.0));
#332=AXIS2_PLACEMENT_3D('',#329,#330,#331);
#333=PLANE('',#332);
#334=CARTESIAN_POINT('',(-13.5,-2.7554553E-016,-2.25));
#335=VERTEX_POINT('',#334);
#336=CARTESIAN_POINT('',(-13.5,0.0,-1.92592994E-031));
#337=DIRECTION('',(-1.0,-0.0,-0.0));
#338=DIRECTION('',(0.0,0.0,-1.0));
#339=AXIS2_PLACEMENT_3D('',#336,#337,#338);
#340=CIRCLE('',#339,2.25);
#341=EDGE_CURVE('',#335,#335,#340,.T.);
#342=ORIENTED_EDGE('',*,*,#341,.T.);
#343=EDGE_LOOP('',(#342));
#344=FACE_BOUND('',#343,.T.);
#345=ADVANCED_FACE('',(#344),#333,.F.);
#346=CARTESIAN_POINT('',(13.5,0.0,-1.92592994E-031));
#347=DIRECTION('',(-1.0,0.0,0.0));
#348=DIRECTION('',(0.0,0.0,1.0));
#349=AXIS2_PLACEMENT_3D('',#346,#347,#348);
#350=CYLINDRICAL_SURFACE('',#349,3.0);
#351=CARTESIAN_POINT('',(-12.75,3.6739404E-016,3.0));
#352=VERTEX_POINT('',#351);
#353=CARTESIAN_POINT('',(-12.75,0.0,3.0));
#354=DIRECTION('',(1.0,-0.0,-0.0));
#355=VECTOR('',#354,0.5);
#356=LINE('',#353,#355);
#357=EDGE_CURVE('',#352,#292,#356,.T.);
#358=ORIENTED_EDGE('',*,*,#357,.T.);
#359=ORIENTED_EDGE('',*,*,#298,.F.);
#360=ORIENTED_EDGE('',*,*,#305,.F.);
#361=ORIENTED_EDGE('',*,*,#357,.F.);
#362=CARTESIAN_POINT('',(-12.75,-3.6739404E-016,-3.0));
#363=VERTEX_POINT('',#362);
#364=CARTESIAN_POINT('',(-12.75,0.0,-1.92592994E-031));
#365=DIRECTION('',(1.0,0.0,0.0));
#366=DIRECTION('',(0.0,0.0,-1.0));
#367=AXIS2_PLACEMENT_3D('',#364,#365,#366);
#368=CIRCLE('',#367,3.0);
#369=EDGE_CURVE('',#352,#363,#368,.T.);
#370=ORIENTED_EDGE('',*,*,#369,.T.);
#371=CARTESIAN_POINT('',(-12.75,0.0,-1.92592994E-031));
#372=DIRECTION('',(1.0,0.0,0.0));
#373=DIRECTION('',(0.0,0.0,-1.0));
#374=AXIS2_PLACEMENT_3D('',#371,#372,#373);
#375=CIRCLE('',#374,3.0);
#376=EDGE_CURVE('',#363,#352,#375,.T.);
#377=ORIENTED_EDGE('',*,*,#376,.T.);
#378=EDGE_LOOP('',(#358,#359,#360,#361,#370,#377));
#379=FACE_BOUND('',#378,.T.);
#380=ADVANCED_FACE('',(#379),#350,.T.);
#381=CARTESIAN_POINT('',(-12.75,0.0,-1.92592994E-031));
#382=DIRECTION('',(1.0,0.0,0.0));
#383=DIRECTION('',(0.0,0.0,-1.0));
#384=AXIS2_PLACEMENT_3D('',#381,#382,#383);
#385=CONICAL_SURFACE('',#384,3.0,45.0);
#386=CARTESIAN_POINT('',(-12.75,0.0,-3.0));
#387=DIRECTION('',(-0.707106781,-0.0,0.707106781));
#388=VECTOR('',#387,1.06066017);
#389=LINE('',#386,#388);
#390=EDGE_CURVE('',#363,#335,#389,.T.);
#391=ORIENTED_EDGE('',*,*,#390,.T.);
#392=ORIENTED_EDGE('',*,*,#341,.F.);
#393=ORIENTED_EDGE('',*,*,#390,.F.);
#394=ORIENTED_EDGE('',*,*,#369,.F.);
#395=ORIENTED_EDGE('',*,*,#376,.F.);
#396=EDGE_LOOP('',(#391,#392,#393,#394,#395));
#397=FACE_BOUND('',#396,.T.);
#398=ADVANCED_FACE('',(#397),#385,.T.);
#399=CARTESIAN_POINT('',(13.5,0.0,-1.92592994E-031));
#400=DIRECTION('',(-1.0,0.0,0.0));
#401=DIRECTION('',(0.0,0.0,1.0));
#402=AXIS2_PLACEMENT_3D('',#399,#400,#401);
#403=CONICAL_SURFACE('',#402,2.25,45.0);
#404=CARTESIAN_POINT('',(12.75,0.0,3.0));
#405=DIRECTION('',(0.707106781,-0.0,-0.707106781));
#406=VECTOR('',#405,1.06066017);
#407=LINE('',#404,#406);
#408=EDGE_CURVE('',#205,#181,#407,.T.);
#409=ORIENTED_EDGE('',*,*,#408,.T.);
#410=ORIENTED_EDGE('',*,*,#187,.F.);
#411=ORIENTED_EDGE('',*,*,#194,.F.);
#412=ORIENTED_EDGE('',*,*,#408,.F.);
#413=ORIENTED_EDGE('',*,*,#226,.F.);
#414=ORIENTED_EDGE('',*,*,#219,.F.);
#415=EDGE_LOOP('',(#409,#410,#411,#412,#413,#414));
#416=FACE_BOUND('',#415,.T.);
#417=ADVANCED_FACE('',(#416),#403,.T.);
#418=CLOSED_SHELL('',(#97,#118,#155,#172,#198,#233,#263,#309,#328,#345,#380,#398,#417));
#419=MANIFOLD_SOLID_BREP('',#418);
#420=COLOUR_RGB('',0.752941191,0.752941191,0.752941191);
#421=FILL_AREA_STYLE_COLOUR('',#420);
#422=FILL_AREA_STYLE('',(#421));
#423=SURFACE_STYLE_FILL_AREA(#422);
#424=SURFACE_SIDE_STYLE('',(#423));
#425=SURFACE_STYLE_USAGE(.BOTH.,#424);
#426=PRESENTATION_STYLE_ASSIGNMENT((#425));
#46=STYLED_ITEM('',(#426),#419);
#33=SHAPE_REPRESENTATION('D\S\ifaut',(#32),#27);
#427=ADVANCED_BREP_SHAPE_REPRESENTATION('D\S\ifaut',(#419),#27);
#428=SHAPE_REPRESENTATION_RELATIONSHIP('','',#33,#427);
#429=APPLICATION_CONTEXT('data for automotive mechanical design processes');
#430=APPLICATION_PROTOCOL_DEFINITION('international standard','automotive_design',1994,#429);
#431=PRODUCT_CONTEXT('',#429,'mechanical');
#432=PRODUCT_DEFINITION_CONTEXT('part definition',#429,'design');
#35=PRODUCT('D\S\ifaut','D\S\ifaut','',(#431));
#433=PRODUCT_RELATED_PRODUCT_CATEGORY('part','',(#35));
#434=PRODUCT_DEFINITION_FORMATION_WITH_SPECIFIED_SOURCE('','',#35,.NOT_KNOWN.);
#36=PRODUCT_DEFINITION('design','',#434,#432);
#34=PRODUCT_DEFINITION_SHAPE('','',#36);
#435=SHAPE_DEFINITION_REPRESENTATION(#34,#33);
#28=DRAUGHTING_MODEL('',(),#27);
#16=SHAPE_REPRESENTATION('Axe rainure',(#15,#40),#10);
#18=PRODUCT('Axe rainure','Axe rainure','',(#431));
#436=PRODUCT_RELATED_PRODUCT_CATEGORY('part','',(#18));
#437=PRODUCT_DEFINITION_FORMATION_WITH_SPECIFIED_SOURCE('','',#18,.NOT_KNOWN.);
#19=PRODUCT_DEFINITION('design','',#437,#432);
#17=PRODUCT_DEFINITION_SHAPE('','',#19);
#438=SHAPE_DEFINITION_REPRESENTATION(#17,#16);
#11=DRAUGHTING_MODEL('',(),#10);
#1=MECHANICAL_DESIGN_GEOMETRIC_PRESENTATION_REPRESENTATION('',(#46),#10);
ENDSEC;
END-ISO-10303-21;
